  0
SECTION
  2
HEADER
  9
$ACADVER
  1
AC1009
  9
$INSBASE
 10
0.0
 20
0.0
 30
0.0
  9
$EXTMIN
 10
-112.536703
 20
-557.292505
 30
0.0
  9
$EXTMAX
 10
2128.136773
 20
1895.549724
 30
0.0
  9
$LIMMIN
 10
0.0
 20
0.0
  9
$LIMMAX
 10
420.0
 20
297.0
  9
$ORTHOMODE
 70
     1
  9
$REGENMODE
 70
     1
  9
$FILLMODE
 70
     1
  9
$QTEXTMODE
 70
     0
  9
$MIRRTEXT
 70
     1
  9
$DRAGMODE
 70
     2
  9
$LTSCALE
 40
25.0
  9
$OSMODE
 70
     0
  9
$ATTMODE
 70
     1
  9
$TEXTSIZE
 40
3.0
  9
$TRACEWID
 40
10.0
  9
$TEXTSTYLE
  7
STANDARD
  9
$CLAYER
  8
0
  9
$CELTYPE
  6
BYLAYER
  9
$CECOLOR
 62
   256
  9
$DIMSCALE
 40
1.0
  9
$DIMASZ
 40
25.0
  9
$DIMEXO
 40
15.0
  9
$DIMDLI
 40
10.0
  9
$DIMRND
 40
0.0
  9
$DIMDLE
 40
1.25
  9
$DIMEXE
 40
15.0
  9
$DIMTP
 40
0.0
  9
$DIMTM
 40
0.0
  9
$DIMTXT
 40
25.0
  9
$DIMCEN
 40
-3.0
  9
$DIMTSZ
 40
0.0
  9
$DIMTOL
 70
     0
  9
$DIMLIM
 70
     0
  9
$DIMTIH
 70
     0
  9
$DIMTOH
 70
     0
  9
$DIMSE1
 70
     0
  9
$DIMSE2
 70
     0
  9
$DIMTAD
 70
     0
  9
$DIMZIN
 70
     1
  9
$DIMBLK
  1

  9
$DIMASO
 70
     0
  9
$DIMSHO
 70
     0
  9
$DIMPOST
  1

  9
$DIMAPOST
  1

  9
$DIMALT
 70
     0
  9
$DIMALTD
 70
     2
  9
$DIMALTF
 40
0.039
  9
$DIMLFAC
 40
1.0
  9
$DIMTOFL
 70
     0
  9
$DIMTVP
 40
1.5
  9
$DIMTIX
 70
     0
  9
$DIMSOXD
 70
     0
  9
$DIMSAH
 70
     0
  9
$DIMBLK1
  1

  9
$DIMBLK2
  1

  9
$DIMSTYLE
  2
STANDARD
  9
$DIMCLRD
 70
     0
  9
$DIMCLRE
 70
     0
  9
$DIMCLRT
 70
     0
  9
$DIMTFAC
 40
1.0
  9
$DIMGAP
 40
0.09
  9
$LUNITS
 70
     2
  9
$LUPREC
 70
     2
  9
$SKETCHINC
 40
1.0
  9
$FILLETRAD
 40
0.0
  9
$AUNITS
 70
     0
  9
$AUPREC
 70
     4
  9
$MENU
  1
acad
  9
$ELEVATION
 40
0.0
  9
$PELEVATION
 40
0.0
  9
$THICKNESS
 40
0.0
  9
$LIMCHECK
 70
     0
  9
$BLIPMODE
 70
     0
  9
$CHAMFERA
 40
0.0
  9
$CHAMFERB
 40
0.0
  9
$SKPOLY
 70
     1
  9
$TDCREATE
 40
2448771.374787
  9
$TDUPDATE
 40
2453073.533478
  9
$TDINDWG
 40
0.003417
  9
$TDUSRTIMER
 40
0.003417
  9
$USRTIMER
 70
     1
  9
$ANGBASE
 50
0.0
  9
$ANGDIR
 70
     0
  9
$PDMODE
 70
     3
  9
$PDSIZE
 40
0.0
  9
$PLINEWID
 40
0.0
  9
$COORDS
 70
     1
  9
$SPLFRAME
 70
     0
  9
$SPLINETYPE
 70
     6
  9
$SPLINESEGS
 70
     6
  9
$ATTDIA
 70
     0
  9
$ATTREQ
 70
     1
  9
$HANDLING
 70
 22529
  9
$HANDSEED
  5
2C4
  9
$SURFTAB1
 70
    12
  9
$SURFTAB2
 70
    12
  9
$SURFTYPE
 70
     6
  9
$SURFU
 70
    12
  9
$SURFV
 70
    12
  9
$UCSNAME
  2

  9
$UCSORG
 10
0.0
 20
0.0
 30
0.0
  9
$UCSXDIR
 10
1.0
 20
0.0
 30
0.0
  9
$UCSYDIR
 10
0.0
 20
1.0
 30
0.0
  9
$PUCSNAME
  2

  9
$PUCSORG
 10
0.0
 20
0.0
 30
0.0
  9
$PUCSXDIR
 10
1.0
 20
0.0
 30
0.0
  9
$PUCSYDIR
 10
0.0
 20
1.0
 30
0.0
  9
$USERI1
 70
     0
  9
$USERI2
 70
     0
  9
$USERI3
 70
     0
  9
$USERI4
 70
     0
  9
$USERI5
 70
     0
  9
$USERR1
 40
0.0
  9
$USERR2
 40
0.0
  9
$USERR3
 40
0.0
  9
$USERR4
 40
0.0
  9
$USERR5
 40
0.0
  9
$WORLDVIEW
 70
     0
  9
$SHADEDGE
 70
     3
  9
$SHADEDIF
 70
    70
  9
$TILEMODE
 70
     1
  9
$MAXACTVP
 70
    48
  9
$PLIMCHECK
 70
     0
  9
$PEXTMIN
 10
1.000000E+020
 20
1.000000E+020
 30
1.000000E+020
  9
$PEXTMAX
 10
-1.000000E+020
 20
-1.000000E+020
 30
-1.000000E+020
  9
$PLIMMIN
 10
0.0
 20
0.0
  9
$PLIMMAX
 10
12.0
 20
9.0
  9
$UNITMODE
 70
     0
  9
$VISRETAIN
 70
     0
  9
$PLINEGEN
 70
     0
  9
$PSLTSCALE
 70
     0
  0
ENDSEC
  0
SECTION
  2
TABLES
  0
TABLE
  2
VPORT
 70
     2
  0
VPORT
  2
*ACTIVE
 70
     0
 10
0.0
 20
0.0
 11
1.0
 21
1.0
 12
1007.800035
 22
669.12861
 13
0.0
 23
0.0
 14
10.0
 24
10.0
 15
0.0
 25
0.0
 16
0.0
 26
0.0
 36
1.0
 17
0.0
 27
0.0
 37
0.0
 40
2481.089932
 41
1.825
 42
50.0
 43
0.0
 44
0.0
 50
0.0
 51
0.0
 71
     0
 72
  2000
 73
     1
 74
     2
 75
     1
 76
     0
 77
     0
 78
     1
  0
ENDTAB
  0
TABLE
  2
LTYPE
 70
     3
  0
LTYPE
  2
CONTINUOUS
 70
     0
  3
Solid line
 72
    65
 73
     0
 40
0.0
  0
LTYPE
  2
CENTER
 70
     0
  3
____ _ ____ _ ____ _ ____ _ ____ _ ____ _ ____
 72
    65
 73
     4
 40
2.0
 49
1.25
 49
-0.25
 49
0.25
 49
-0.25
  0
LTYPE
  2
DASHED
 70
     0
  3
__ __ __ __ __ __ __ __ __ __ __ __ __ __ __
 72
    65
 73
     2
 40
0.75
 49
0.5
 49
-0.25
  0
ENDTAB
  0
TABLE
  2
LAYER
 70
     8
  0
LAYER
  2
0
 70
     0
 62
     7
  6
CONTINUOUS
  0
LAYER
  2
DETAIL
 70
     0
 62
     2
  6
CONTINUOUS
  0
LAYER
  2
DIMENSIONS
 70
     1
 62
     7
  6
CONTINUOUS
  0
LAYER
  2
CENTER
 70
     1
 62
     4
  6
CENTER
  0
LAYER
  2
ORIGIN
 70
     0
 62
     6
  6
CONTINUOUS
  0
LAYER
  2
PLANNING
 70
     1
 62
     1
  6
DASHED
  0
LAYER
  2
STELTXT
 70
     1
 62
     4
  6
CONTINUOUS
  0
LAYER
  2
STELATT
 70
     0
 62
     7
  6
CONTINUOUS
  0
ENDTAB
  0
TABLE
  2
STYLE
 70
     1
  0
STYLE
  2
STANDARD
 70
     0
 40
0.0
 41
1.0
 50
0.0
 71
     0
 42
3.0
  3
simplex
  4

  0
ENDTAB
  0
TABLE
  2
VIEW
 70
     0
  0
ENDTAB
  0
TABLE
  2
UCS
 70
     0
  0
ENDTAB
  0
TABLE
  2
APPID
 70
     1
  0
APPID
  2
ACAD
 70
     0
  0
ENDTAB
  0
TABLE
  2
DIMSTYLE
 70
     1
  0
DIMSTYLE
  2
STANDARD
 70
     0
  3

  4

  5

  6

  7

 40
1.0
 41
0.18
 42
0.0625
 43
0.38
 44
0.18
 45
0.0
 46
0.0
 47
0.0
 48
0.0
140
0.18
141
0.09
142
0.0
143
25.4
144
1.0
145
0.0
146
1.0
147
0.09
 71
     0
 72
     0
 73
     1
 74
     1
 75
     0
 76
     0
 77
     0
 78
     0
170
     0
171
     2
172
     0
173
     0
174
     0
175
     0
176
     0
177
     0
178
     0
  0
ENDTAB
  0
ENDSEC
  0
SECTION
  2
BLOCKS
  0
BLOCK
  8
0
  2
$MODEL_SPACE
 70
     0
 10
0.0
 20
0.0
 30
0.0
  3
$MODEL_SPACE
  1

  0
ENDBLK
  5
2A
  8
0
  0
BLOCK
 67
     1
  8
0
  2
$PAPER_SPACE
 70
     0
 10
0.0
 20
0.0
 30
0.0
  3
$PAPER_SPACE
  1

  0
ENDBLK
  5
28
 67
     1
  8
0
  0
ENDSEC
  0
SECTION
  2
ENTITIES
  0
SOLID
  5
2D
  8
DIMENSIONS
 10
-115.833333
 20
25.0
 30
0.0
 11
-124.166667
 21
25.0
 31
0.0
 12
-120.0
 22
0.0
 32
0.0
 13
-120.0
 23
0.0
 33
0.0
  0
TEXT
  5
2E
  8
DIMENSIONS
 10
-145.0
 20
67.857143
 30
0.0
 40
25.0
  1
200
 50
90.0
  0
LINE
  5
30
  8
DIMENSIONS
 10
-120.0
 20
175.0
 30
0.0
 11
-120.0
 21
25.0
 31
0.0
  0
SOLID
  5
31
  8
DIMENSIONS
 10
-115.833333
 20
175.0
 30
0.0
 11
-124.166667
 21
175.0
 31
0.0
 12
-120.0
 22
200.0
 32
0.0
 13
-120.0
 23
200.0
 33
0.0
  0
LINE
  5
32
  8
DIMENSIONS
 10
-93.75
 20
200.0
 30
0.0
 11
-135.0
 21
200.0
 31
0.0
  0
LINE
  5
33
  8
CENTER
 10
-78.75
 20
200.0
 30
0.0
 11
116.75
 21
200.0
 31
0.0
  0
SOLID
  5
34
  8
STELTXT
 10
-5.689815
 20
219.904543
 30
0.0
 11
-11.297244
 21
213.740033
 31
0.0
 12
10.0
 22
200.0
 32
0.0
 13
10.0
 23
200.0
 33
0.0
  0
LINE
  5
35
  8
STELTXT
 10
-8.493529
 20
216.822288
 30
0.0
 11
-112.686975
 21
311.599878
 31
0.0
  0
LINE
  5
36
  8
STELTXT
 10
-112.686975
 20
311.599878
 30
0.0
 11
-264.484761
 21
311.599878
 31
0.0
  0
TEXT
  5
37
  8
STELTXT
 10
-580.359444
 20
279.345871
 30
0.0
 40
25.0
  1
CONNECTION
  0
TEXT
  5
38
  8
STELTXT
 10
-580.359444
 20
319.345871
 30
0.0
 40
25.0
  1
5" BSP RETURN
  0
SOLID
  5
39
  8
DIMENSIONS
 10
25.0
 20
2116.233333
 30
0.0
 11
25.0
 21
2124.566667
 31
0.0
 12
0.0
 22
2120.4
 32
0.0
 13
0.0
 23
2120.4
 33
0.0
  0
SOLID
  5
3A
  8
DIMENSIONS
 10
-62.0
 20
2116.233333
 30
0.0
 11
-62.0
 21
2124.566667
 31
0.0
 12
-87.0
 22
2120.4
 32
0.0
 13
-87.0
 23
2120.4
 33
0.0
  0
SOLID
  5
3B
  8
DIMENSIONS
 10
-25.0
 20
2116.233333
 30
0.0
 11
-25.0
 21
2124.566667
 31
0.0
 12
0.0
 22
2120.4
 32
0.0
 13
0.0
 23
2120.4
 33
0.0
  0
LINE
  5
3C
  8
DIMENSIONS
 10
0.0
 20
2105.4
 30
0.0
 11
0.0
 21
2105.4
 31
0.0
  0
LINE
  5
3D
  8
DIMENSIONS
 10
0.0
 20
2105.4
 30
0.0
 11
0.0
 21
2105.4
 31
0.0
  0
LINE
  5
3E
  8
DIMENSIONS
 10
-25.0
 20
2120.4
 30
0.0
 11
-62.0
 21
2120.4
 31
0.0
  0
TEXT
  5
3F
  8
DIMENSIONS
 10
-63.738095
 20
2145.4
 30
0.0
 40
25.0
  1
87
  0
LINE
  5
40
  8
DIMENSIONS
 10
-87.0
 20
1922.5
 30
0.0
 11
-87.0
 21
2135.4
 31
0.0
  0
LINE
  5
41
  8
DIMENSIONS
 10
-125.0
 20
1585.0
 30
0.0
 11
-125.0
 21
1560.0
 31
0.0
  0
SOLID
  5
42
  8
DIMENSIONS
 10
-120.833333
 20
1585.0
 30
0.0
 11
-129.166667
 21
1585.0
 31
0.0
 12
-125.0
 22
1610.0
 32
0.0
 13
-125.0
 23
1610.0
 33
0.0
  0
LINE
  5
43
  8
DIMENSIONS
 10
-125.0
 20
1660.0
 30
0.0
 11
-125.0
 21
1685.0
 31
0.0
  0
SOLID
  5
44
  8
DIMENSIONS
 10
-120.833333
 20
1660.0
 30
0.0
 11
-129.166667
 21
1660.0
 31
0.0
 12
-125.0
 22
1635.0
 32
0.0
 13
-125.0
 23
1635.0
 33
0.0
  0
LINE
  5
45
  8
DIMENSIONS
 10
805.5
 20
1635.0
 30
0.0
 11
-140.0
 21
1635.0
 31
0.0
  0
LINE
  5
46
  8
DIMENSIONS
 10
-125.0
 20
1685.0
 30
0.0
 11
-125.0
 21
1750.47619
 31
0.0
  0
TEXT
  5
47
  8
DIMENSIONS
 10
-150.0
 20
1710.0
 30
0.0
 40
25.0
  1
25
 50
90.0
  0
TEXT
  5
48
  8
STELTXT
 10
2425.615056
 20
1812.900986
 30
0.0
 40
25.0
  1
CONNECTION
  0
TEXT
  5
49
  8
STELTXT
 10
2425.615056
 20
1852.900986
 30
0.0
 40
25.0
  1
5" BSP FLOW
  0
LINE
  5
4A
  8
STELTXT
 10
2367.60837
 20
1846.257718
 30
0.0
 11
2412.630932
 21
1846.257718
 31
0.0
  0
SOLID
  5
4B
  8
STELTXT
 10
2126.659536
 20
1633.16152
 30
0.0
 11
2121.220149
 21
1639.474801
 31
0.0
 12
2105.0
 22
1620.0
 32
0.0
 13
2105.0
 23
1620.0
 33
0.0
  0
LINE
  5
4C
  8
STELTXT
 10
2123.939843
 20
1636.318161
 30
0.0
 11
2367.60837
 21
1846.257718
 31
0.0
  0
LINE
  5
4D
  8
CENTER
 10
1998.25
 20
1620.0
 30
0.0
 11
2193.75
 21
1620.0
 31
0.0
  0
LINE
  5
4E
  8
CENTER
 10
2012.25
 20
200.0
 30
0.0
 11
2207.75
 21
200.0
 31
0.0
  0
LINE
  5
4F
  8
DETAIL
 10
2105.0
 20
1610.0
 30
0.0
 11
2115.0
 21
1610.0
 31
0.0
  0
LINE
  5
50
  8
DETAIL
 10
-13.0
 20
1740.0
 30
0.0
 11
-13.0
 21
1500.0
 31
0.0
  0
LINE
  5
51
  8
DETAIL
 10
10.0
 20
200.0
 30
0.0
 11
0.0
 21
200.0
 31
0.0
  0
LINE
  5
52
  8
DETAIL
 10
2128.0
 20
320.0
 30
0.0
 11
2128.0
 21
80.0
 31
0.0
  0
POLYLINE
  5
53
  8
ORIGIN
 66
     1
 10
0.0
 20
0.0
 30
0.0
  0
VERTEX
  5
2BD
  8
ORIGIN
 10
0.0
 20
0.0
 30
0.0
  0
VERTEX
  5
2BE
  8
ORIGIN
 10
-100.0
 20
-100.0
 30
0.0
  0
VERTEX
  5
2BF
  8
ORIGIN
 10
-100.0
 20
100.0
 30
0.0
  0
VERTEX
  5
2C0
  8
ORIGIN
 10
100.0
 20
-100.0
 30
0.0
  0
VERTEX
  5
2C1
  8
ORIGIN
 10
100.0
 20
100.0
 30
0.0
  0
VERTEX
  5
2C2
  8
ORIGIN
 10
0.0
 20
0.0
 30
0.0
  0
SEQEND
  5
2C3
  8
ORIGIN
  0
LINE
  5
5B
  8
DETAIL
 10
1776.0
 20
1484.0
 30
0.0
 11
1816.0
 21
1484.0
 31
0.0
  0
LINE
  5
5C
  8
DETAIL
 10
2051.0
 20
631.0
 30
0.0
 11
2051.0
 21
364.0
 31
0.0
  0
LINE
  5
5D
  8
DETAIL
 10
1784.0
 20
364.0
 30
0.0
 11
2051.0
 21
364.0
 31
0.0
  0
LINE
  5
5E
  8
DETAIL
 10
1784.0
 20
399.0
 30
0.0
 11
1784.0
 21
364.0
 31
0.0
  0
CIRCLE
  5
5F
  8
DETAIL
 10
1563.5
 20
613.862325
 30
0.0
 40
8.0
  0
ARC
  5
60
  8
DETAIL
 10
1796.0
 20
613.862325
 30
0.0
 40
245.0
 50
4.011098
 51
267.192553
  0
ARC
  5
61
  8
DETAIL
 10
1796.0
 20
613.862325
 30
0.0
 40
220.0
 50
4.467783
 51
266.873224
  0
CIRCLE
  5
62
  8
DETAIL
 10
1796.0
 20
846.362325
 30
0.0
 40
8.0
  0
CIRCLE
  5
63
  8
DETAIL
 10
1796.0
 20
381.362325
 30
0.0
 40
8.0
  0
CIRCLE
  5
64
  8
DETAIL
 10
2028.5
 20
613.862325
 30
0.0
 40
8.0
  0
LINE
  5
65
  8
DETAIL
 10
2015.331484
 20
631.0
 30
0.0
 11
2051.0
 21
631.0
 31
0.0
  0
LINE
  5
66
  8
DETAIL
 10
1784.0
 20
399.0
 30
0.0
 11
2015.331484
 21
631.0
 31
0.0
  0
ATTDEF
  5
67
  8
STELATT
 10
870.833333
 20
-490.0
 30
0.0
 40
40.0
  1
SUPER PLUS
 72
     4
 11
1057.5
 21
-470.0
 31
0.0
  3

  2
TYPE
 70
     2
  0
ATTDEF
  5
68
  8
STELATT
 10
966.071429
 20
-557.142857
 30
0.0
 40
40.0
  1
500/5
 72
     4
 11
1057.5
 21
-540.0
 31
0.0
  3

  2
MODEL
 70
     2
  0
ATTDEF
  5
69
  8
STELATT
 10
979.404762
 20
-420.0
 30
0.0
 40
40.0
  1
IDEAL
 72
     4
 11
1057.5
 21
-400.0
 31
0.0
  3

  2
MANUFACTURER
 70
     2
  0
LINE
  5
6A
  8
PLANNING
 10
-600.0
 20
1635.0
 30
0.0
 11
2715.0
 21
1635.0
 31
0.0
  0
LINE
  5
6B
  8
PLANNING
 10
2715.0
 20
0.0
 30
0.0
 11
-600.0
 21
0.0
 31
0.0
  0
LINE
  5
6C
  8
PLANNING
 10
2715.0
 20
1635.0
 30
0.0
 11
2715.0
 21
0.0
 31
0.0
  0
LINE
  5
6D
  8
PLANNING
 10
-600.0
 20
0.0
 30
0.0
 11
-600.0
 21
1635.0
 31
0.0
  0
LINE
  5
6E
  8
STELTXT
 10
1460.363762
 20
2292.630388
 30
0.0
 11
1550.015532
 21
2292.630388
 31
0.0
  0
LINE
  5
6F
  8
STELTXT
 10
1070.559338
 20
1656.31792
 30
0.0
 11
1460.363762
 21
2292.630388
 31
0.0
  0
SOLID
  5
70
  8
STELTXT
 10
1074.112324
 20
1654.141363
 30
0.0
 11
1067.006351
 21
1658.494476
 31
0.0
 12
1057.5
 22
1635.0
 32
0.0
 13
1057.5
 23
1635.0
 33
0.0
  0
LINE
  5
71
  8
CENTER
 10
1057.5
 20
1715.25
 30
0.0
 11
1057.5
 21
1554.75
 31
0.0
  0
TEXT
  5
72
  8
STELTXT
 10
1566.065954
 20
2280.936408
 30
0.0
 40
25.0
  1
FLUE OUTLET
  0
TEXT
  5
73
  8
DIMENSIONS
 10
-250.0
 20
1707.857143
 30
0.0
 40
25.0
  1
260
 50
90.0
  0
SOLID
  5
74
  8
DIMENSIONS
 10
-220.833333
 20
1635.0
 30
0.0
 11
-229.166667
 21
1635.0
 31
0.0
 12
-225.0
 22
1610.0
 32
0.0
 13
-225.0
 23
1610.0
 33
0.0
  0
SOLID
  5
75
  8
DIMENSIONS
 10
-220.833333
 20
1845.0
 30
0.0
 11
-229.166667
 21
1845.0
 31
0.0
 12
-225.0
 22
1870.0
 32
0.0
 13
-225.0
 23
1870.0
 33
0.0
  0
LINE
  5
76
  8
DIMENSIONS
 10
-225.0
 20
1845.0
 30
0.0
 11
-225.0
 21
1635.0
 31
0.0
  0
LINE
  5
77
  8
DIMENSIONS
 10
-210.0
 20
1610.0
 30
0.0
 11
-210.0
 21
1610.0
 31
0.0
  0
LINE
  5
78
  8
DIMENSIONS
 10
-139.5
 20
1870.0
 30
0.0
 11
-240.0
 21
1870.0
 31
0.0
  0
LINE
  5
79
  8
STELTXT
 10
-271.220524
 20
2060.761962
 30
0.0
 11
-333.014735
 21
2060.761962
 31
0.0
  0
LINE
  5
7A
  8
STELTXT
 10
-104.366647
 20
1887.983314
 30
0.0
 11
-271.220524
 21
2060.761962
 31
0.0
  0
SOLID
  5
7B
  8
STELTXT
 10
-101.369428
 20
1890.877755
 30
0.0
 11
-107.363866
 21
1885.088873
 31
0.0
 12
-87.0
 22
1870.0
 32
0.0
 13
-87.0
 23
1870.0
 33
0.0
  0
LINE
  5
7C
  8
CENTER
 10
-49.5
 20
1870.0
 30
0.0
 11
-124.5
 21
1870.0
 31
0.0
  0
LINE
  5
7D
  8
CENTER
 10
-87.0
 20
1907.5
 30
0.0
 11
-87.0
 21
1832.5
 31
0.0
  0
TEXT
  5
7E
  8
STELTXT
 10
-585.359444
 20
2026.055015
 30
0.0
 40
25.0
  1
CONNECTION
  0
TEXT
  5
7F
  8
STELTXT
 10
-585.359444
 20
2066.055015
 30
0.0
 40
25.0
  1
2" BSP GAS
  0
TEXT
  5
80
  8
DIMENSIONS
 10
1014.047619
 20
2045.4
 30
0.0
 40
25.0
  1
474%%C
  0
SOLID
  5
81
  8
DIMENSIONS
 10
1269.5
 20
2016.233333
 30
0.0
 11
1269.5
 21
2024.566667
 31
0.0
 12
1294.5
 22
2020.4
 32
0.0
 13
1294.5
 23
2020.4
 33
0.0
  0
SOLID
  5
82
  8
DIMENSIONS
 10
845.5
 20
2016.233333
 30
0.0
 11
845.5
 21
2024.566667
 31
0.0
 12
820.5
 22
2020.4
 32
0.0
 13
820.5
 23
2020.4
 33
0.0
  0
LINE
  5
83
  8
DIMENSIONS
 10
845.5
 20
2020.4
 30
0.0
 11
1269.5
 21
2020.4
 31
0.0
  0
LINE
  5
84
  8
DIMENSIONS
 10
1294.5
 20
1650.0
 30
0.0
 11
1294.5
 21
2035.4
 31
0.0
  0
LINE
  5
85
  8
DIMENSIONS
 10
820.5
 20
1650.0
 30
0.0
 11
820.5
 21
2035.4
 31
0.0
  0
TEXT
  5
86
  8
DIMENSIONS
 10
1019.340912
 20
-125.0
 30
0.0
 40
25.0
  1
1200
  0
SOLID
  5
87
  8
DIMENSIONS
 10
1632.5
 20
-154.166667
 30
0.0
 11
1632.5
 21
-145.833333
 31
0.0
 12
1657.5
 22
-150.0
 32
0.0
 13
1657.5
 23
-150.0
 33
0.0
  0
SOLID
  5
88
  8
DIMENSIONS
 10
482.5
 20
-154.166667
 30
0.0
 11
482.5
 21
-145.833333
 31
0.0
 12
457.5
 22
-150.0
 32
0.0
 13
457.5
 23
-150.0
 33
0.0
  0
LINE
  5
89
  8
DIMENSIONS
 10
482.5
 20
-150.0
 30
0.0
 11
1632.5
 21
-150.0
 31
0.0
  0
LINE
  5
8A
  8
DIMENSIONS
 10
1657.5
 20
-112.75
 30
0.0
 11
1657.5
 21
-165.0
 31
0.0
  0
LINE
  5
8B
  8
DIMENSIONS
 10
457.5
 20
-112.75
 30
0.0
 11
457.5
 21
-165.0
 31
0.0
  0
LINE
  5
8C
  8
DIMENSIONS
 10
-210.0
 20
1610.0
 30
0.0
 11
-210.0
 21
1610.0
 31
0.0
  0
LINE
  5
8D
  8
DETAIL
  6
DASHED
 10
820.5
 20
1635.0
 30
0.0
 11
1294.5
 21
1635.0
 31
0.0
  0
LINE
  5
8E
  8
CENTER
 10
457.5
 20
-97.75
 30
0.0
 11
457.5
 21
97.75
 31
0.0
  0
LINE
  5
8F
  8
CENTER
 10
1657.5
 20
-97.75
 30
0.0
 11
1657.5
 21
97.75
 31
0.0
  0
LINE
  5
90
  8
DIMENSIONS
 10
2268.0
 20
200.0
 30
0.0
 11
2268.0
 21
200.0
 31
0.0
  0
TEXT
  5
91
  8
DIMENSIONS
 10
-250.0
 20
765.714286
 30
0.0
 40
25.0
  1
1610
 50
90.0
  0
SOLID
  5
92
  8
DIMENSIONS
 10
-220.833333
 20
25.0
 30
0.0
 11
-229.166667
 21
25.0
 31
0.0
 12
-225.0
 22
0.0
 32
0.0
 13
-225.0
 23
0.0
 33
0.0
  0
SOLID
  5
93
  8
DIMENSIONS
 10
-220.833333
 20
1585.0
 30
0.0
 11
-229.166667
 21
1585.0
 31
0.0
 12
-225.0
 22
1610.0
 32
0.0
 13
-225.0
 23
1610.0
 33
0.0
  0
LINE
  5
94
  8
DIMENSIONS
 10
-225.0
 20
1585.0
 30
0.0
 11
-225.0
 21
25.0
 31
0.0
  0
LINE
  5
95
  8
DIMENSIONS
 10
367.5
 20
0.0
 30
0.0
 11
-240.0
 21
0.0
 31
0.0
  0
LINE
  5
96
  8
DIMENSIONS
 10
-15.0
 20
1610.0
 30
0.0
 11
-240.0
 21
1610.0
 31
0.0
  0
TEXT
  5
97
  8
DIMENSIONS
 10
1018.214286
 20
2145.4
 30
0.0
 40
25.0
  1
2115
  0
SOLID
  5
98
  8
DIMENSIONS
 10
2090.0
 20
2116.233333
 30
0.0
 11
2090.0
 21
2124.566667
 31
0.0
 12
2115.0
 22
2120.4
 32
0.0
 13
2115.0
 23
2120.4
 33
0.0
  0
SOLID
  5
99
  8
DIMENSIONS
 10
25.0
 20
2116.233333
 30
0.0
 11
25.0
 21
2124.566667
 31
0.0
 12
0.0
 22
2120.4
 32
0.0
 13
0.0
 23
2120.4
 33
0.0
  0
LINE
  5
9A
  8
DIMENSIONS
 10
25.0
 20
2120.4
 30
0.0
 11
2090.0
 21
2120.4
 31
0.0
  0
LINE
  5
9B
  8
DIMENSIONS
 10
2115.0
 20
1625.0
 30
0.0
 11
2115.0
 21
2135.4
 31
0.0
  0
LINE
  5
9C
  8
DIMENSIONS
 10
0.0
 20
1755.0
 30
0.0
 11
0.0
 21
2135.4
 31
0.0
  0
TEXT
  5
9D
  8
DIMENSIONS
 10
2228.0
 20
868.333333
 30
0.0
 40
25.0
  1
1420
 50
90.0
  0
SOLID
  5
9E
  8
DIMENSIONS
 10
2257.166667
 20
225.0
 30
0.0
 11
2248.833333
 21
225.0
 31
0.0
 12
2253.0
 22
200.0
 32
0.0
 13
2253.0
 23
200.0
 33
0.0
  0
SOLID
  5
9F
  8
DIMENSIONS
 10
2257.166667
 20
1595.0
 30
0.0
 11
2248.833333
 21
1595.0
 31
0.0
 12
2253.0
 22
1620.0
 32
0.0
 13
2253.0
 23
1620.0
 33
0.0
  0
LINE
  5
A0
  8
DIMENSIONS
 10
2253.0
 20
1595.0
 30
0.0
 11
2253.0
 21
225.0
 31
0.0
  0
LINE
  5
A1
  8
DIMENSIONS
 10
2222.75
 20
200.0
 30
0.0
 11
2268.0
 21
200.0
 31
0.0
  0
LINE
  5
A2
  8
DIMENSIONS
 10
2217.75
 20
1620.0
 30
0.0
 11
2268.0
 21
1620.0
 31
0.0
  0
LINE
  5
A3
  8
DETAIL
 10
532.5
 20
0.0
 30
0.0
 11
382.5
 21
0.0
 31
0.0
  0
LINE
  5
A4
  8
DETAIL
 10
532.5
 20
0.0
 30
0.0
 11
532.5
 21
137.5
 31
0.0
  0
LINE
  5
A5
  8
DETAIL
 10
382.5
 20
0.0
 30
0.0
 11
382.5
 21
137.5
 31
0.0
  0
LINE
  5
A6
  8
DETAIL
 10
1582.5
 20
0.0
 30
0.0
 11
1582.5
 21
137.5
 31
0.0
  0
LINE
  5
A7
  8
DETAIL
 10
1732.5
 20
0.0
 30
0.0
 11
1732.5
 21
137.5
 31
0.0
  0
LINE
  5
A8
  8
DETAIL
 10
600.525
 20
1844.6
 30
0.0
 11
881.475
 21
1844.6
 31
0.0
  0
LINE
  5
A9
  8
DETAIL
 10
900.525
 20
1844.6
 30
0.0
 11
1181.475
 21
1844.6
 31
0.0
  0
LINE
  5
AA
  8
DETAIL
 10
1200.525
 20
1844.6
 30
0.0
 11
1481.475
 21
1844.6
 31
0.0
  0
LINE
  5
AB
  8
DETAIL
 10
881.475
 20
1682.5
 30
0.0
 11
881.475
 21
1844.6
 31
0.0
  0
LINE
  5
AC
  8
DETAIL
 10
900.525
 20
1682.5
 30
0.0
 11
900.525
 21
1844.6
 31
0.0
  0
LINE
  5
AD
  8
DETAIL
 10
1200.525
 20
1682.5
 30
0.0
 11
1200.525
 21
1844.6
 31
0.0
  0
LINE
  5
AE
  8
DETAIL
 10
1181.475
 20
1682.5
 30
0.0
 11
1181.475
 21
1844.6
 31
0.0
  0
LINE
  5
AF
  8
DETAIL
 10
581.475
 20
1682.5
 30
0.0
 11
581.475
 21
1844.6
 31
0.0
  0
LINE
  5
B0
  8
DETAIL
 10
600.525
 20
1682.5
 30
0.0
 11
600.525
 21
1844.6
 31
0.0
  0
LINE
  5
B1
  8
DETAIL
 10
300.525
 20
1844.6
 30
0.0
 11
581.475
 21
1844.6
 31
0.0
  0
LINE
  5
B2
  8
DETAIL
 10
300.525
 20
1682.5
 30
0.0
 11
300.525
 21
1844.6
 31
0.0
  0
LINE
  5
B3
  8
DETAIL
 10
281.475
 20
1682.5
 30
0.0
 11
281.475
 21
1844.6
 31
0.0
  0
LINE
  5
B4
  8
DETAIL
 10
1446.0
 20
530.0
 30
0.0
 11
946.0
 21
530.0
 31
0.0
  0
LINE
  5
B5
  8
DETAIL
 10
1071.115209
 20
623.0
 30
0.0
 11
1086.115209
 21
623.0
 31
0.0
  0
LINE
  5
B6
  8
DETAIL
 10
1071.115209
 20
638.0
 30
0.0
 11
1071.115209
 21
618.0
 31
0.0
  0
LINE
  5
B7
  8
DETAIL
 10
1071.115209
 20
638.0
 30
0.0
 11
1086.115209
 21
638.0
 31
0.0
  0
LINE
  5
B8
  8
DETAIL
 10
1071.115209
 20
618.0
 30
0.0
 11
1086.115209
 21
618.0
 31
0.0
  0
CIRCLE
  5
B9
  8
DETAIL
 10
1086.115209
 20
710.0
 30
0.0
 40
4.0
  0
LINE
  5
BA
  8
DETAIL
 10
1086.115209
 20
638.0
 30
0.0
 11
1086.115209
 21
618.0
 31
0.0
  0
CIRCLE
  5
BB
  8
DETAIL
 10
1381.0
 20
725.0
 30
0.0
 40
8.0
  0
CIRCLE
  5
BC
  8
DETAIL
 10
1086.115209
 20
755.0
 30
0.0
 40
4.0
  0
CIRCLE
  5
BD
  8
DETAIL
 10
1086.115209
 20
770.0
 30
0.0
 40
4.0
  0
CIRCLE
  5
BE
  8
DETAIL
 10
1086.115209
 20
785.0
 30
0.0
 40
4.0
  0
CIRCLE
  5
BF
  8
DETAIL
 10
1086.115209
 20
800.0
 30
0.0
 40
4.0
  0
LINE
  5
C0
  8
DETAIL
 10
1121.115209
 20
830.0
 30
0.0
 11
1121.115209
 21
608.0
 31
0.0
  0
LINE
  5
C1
  8
DETAIL
 10
996.115209
 20
830.0
 30
0.0
 11
996.115209
 21
608.0
 31
0.0
  0
LINE
  5
C2
  8
DETAIL
 10
996.115209
 20
608.0
 30
0.0
 11
1121.115209
 21
608.0
 31
0.0
  0
LINE
  5
C3
  8
DETAIL
 10
996.115209
 20
830.0
 30
0.0
 11
1121.115209
 21
830.0
 31
0.0
  0
LINE
  5
C4
  8
DETAIL
 10
846.0
 20
530.0
 30
0.0
 11
346.0
 21
530.0
 31
0.0
  0
LINE
  5
C5
  8
DETAIL
 10
471.115209
 20
623.0
 30
0.0
 11
486.115209
 21
623.0
 31
0.0
  0
LINE
  5
C6
  8
DETAIL
 10
471.115209
 20
638.0
 30
0.0
 11
471.115209
 21
618.0
 31
0.0
  0
LINE
  5
C7
  8
DETAIL
 10
471.115209
 20
638.0
 30
0.0
 11
486.115209
 21
638.0
 31
0.0
  0
LINE
  5
C8
  8
DETAIL
 10
471.115209
 20
618.0
 30
0.0
 11
486.115209
 21
618.0
 31
0.0
  0
CIRCLE
  5
C9
  8
DETAIL
 10
486.115209
 20
710.0
 30
0.0
 40
4.0
  0
LINE
  5
CA
  8
DETAIL
 10
486.115209
 20
638.0
 30
0.0
 11
486.115209
 21
618.0
 31
0.0
  0
CIRCLE
  5
CB
  8
DETAIL
 10
781.0
 20
725.0
 30
0.0
 40
8.0
  0
CIRCLE
  5
CC
  8
DETAIL
 10
486.115209
 20
755.0
 30
0.0
 40
4.0
  0
CIRCLE
  5
CD
  8
DETAIL
 10
486.115209
 20
770.0
 30
0.0
 40
4.0
  0
CIRCLE
  5
CE
  8
DETAIL
 10
486.115209
 20
785.0
 30
0.0
 40
4.0
  0
CIRCLE
  5
CF
  8
DETAIL
 10
486.115209
 20
800.0
 30
0.0
 40
4.0
  0
LINE
  5
D0
  8
DETAIL
 10
521.115209
 20
830.0
 30
0.0
 11
521.115209
 21
608.0
 31
0.0
  0
LINE
  5
D1
  8
DETAIL
 10
396.115209
 20
830.0
 30
0.0
 11
396.115209
 21
608.0
 31
0.0
  0
LINE
  5
D2
  8
DETAIL
 10
396.115209
 20
608.0
 30
0.0
 11
521.115209
 21
608.0
 31
0.0
  0
LINE
  5
D3
  8
DETAIL
 10
396.115209
 20
830.0
 30
0.0
 11
521.115209
 21
830.0
 31
0.0
  0
LINE
  5
D4
  8
DETAIL
 10
1146.0
 20
1090.0
 30
0.0
 11
646.0
 21
1090.0
 31
0.0
  0
LINE
  5
D5
  8
DETAIL
 10
771.115209
 20
1183.0
 30
0.0
 11
786.115209
 21
1183.0
 31
0.0
  0
LINE
  5
D6
  8
DETAIL
 10
771.115209
 20
1198.0
 30
0.0
 11
771.115209
 21
1178.0
 31
0.0
  0
LINE
  5
D7
  8
DETAIL
 10
771.115209
 20
1198.0
 30
0.0
 11
786.115209
 21
1198.0
 31
0.0
  0
LINE
  5
D8
  8
DETAIL
 10
771.115209
 20
1178.0
 30
0.0
 11
786.115209
 21
1178.0
 31
0.0
  0
CIRCLE
  5
D9
  8
DETAIL
 10
786.115209
 20
1270.0
 30
0.0
 40
4.0
  0
LINE
  5
DA
  8
DETAIL
 10
786.115209
 20
1198.0
 30
0.0
 11
786.115209
 21
1178.0
 31
0.0
  0
CIRCLE
  5
DB
  8
DETAIL
 10
1081.0
 20
1285.0
 30
0.0
 40
8.0
  0
CIRCLE
  5
DC
  8
DETAIL
 10
786.115209
 20
1315.0
 30
0.0
 40
4.0
  0
CIRCLE
  5
DD
  8
DETAIL
 10
786.115209
 20
1330.0
 30
0.0
 40
4.0
  0
CIRCLE
  5
DE
  8
DETAIL
 10
786.115209
 20
1345.0
 30
0.0
 40
4.0
  0
CIRCLE
  5
DF
  8
DETAIL
 10
786.115209
 20
1360.0
 30
0.0
 40
4.0
  0
LINE
  5
E0
  8
DETAIL
 10
821.115209
 20
1390.0
 30
0.0
 11
821.115209
 21
1168.0
 31
0.0
  0
LINE
  5
E1
  8
DETAIL
 10
696.115209
 20
1390.0
 30
0.0
 11
696.115209
 21
1168.0
 31
0.0
  0
LINE
  5
E2
  8
DETAIL
 10
696.115209
 20
1168.0
 30
0.0
 11
821.115209
 21
1168.0
 31
0.0
  0
LINE
  5
E3
  8
DETAIL
 10
696.115209
 20
1390.0
 30
0.0
 11
821.115209
 21
1390.0
 31
0.0
  0
LINE
  5
E4
  8
DETAIL
 10
546.0
 20
1090.0
 30
0.0
 11
46.0
 21
1090.0
 31
0.0
  0
LINE
  5
E5
  8
DETAIL
 10
96.115209
 20
1390.0
 30
0.0
 11
221.115209
 21
1390.0
 31
0.0
  0
LINE
  5
E6
  8
DETAIL
 10
96.115209
 20
1168.0
 30
0.0
 11
221.115209
 21
1168.0
 31
0.0
  0
LINE
  5
E7
  8
DETAIL
 10
96.115209
 20
1390.0
 30
0.0
 11
96.115209
 21
1168.0
 31
0.0
  0
LINE
  5
E8
  8
DETAIL
 10
221.115209
 20
1390.0
 30
0.0
 11
221.115209
 21
1168.0
 31
0.0
  0
CIRCLE
  5
E9
  8
DETAIL
 10
186.115209
 20
1360.0
 30
0.0
 40
4.0
  0
CIRCLE
  5
EA
  8
DETAIL
 10
186.115209
 20
1345.0
 30
0.0
 40
4.0
  0
CIRCLE
  5
EB
  8
DETAIL
 10
186.115209
 20
1330.0
 30
0.0
 40
4.0
  0
CIRCLE
  5
EC
  8
DETAIL
 10
186.115209
 20
1315.0
 30
0.0
 40
4.0
  0
CIRCLE
  5
ED
  8
DETAIL
 10
481.0
 20
1285.0
 30
0.0
 40
8.0
  0
LINE
  5
EE
  8
DETAIL
 10
186.115209
 20
1198.0
 30
0.0
 11
186.115209
 21
1178.0
 31
0.0
  0
CIRCLE
  5
EF
  8
DETAIL
 10
186.115209
 20
1270.0
 30
0.0
 40
4.0
  0
LINE
  5
F0
  8
DETAIL
 10
171.115209
 20
1178.0
 30
0.0
 11
186.115209
 21
1178.0
 31
0.0
  0
LINE
  5
F1
  8
DETAIL
 10
171.115209
 20
1198.0
 30
0.0
 11
186.115209
 21
1198.0
 31
0.0
  0
LINE
  5
F2
  8
DETAIL
 10
171.115209
 20
1198.0
 30
0.0
 11
171.115209
 21
1178.0
 31
0.0
  0
LINE
  5
F3
  8
DETAIL
 10
171.115209
 20
1183.0
 30
0.0
 11
186.115209
 21
1183.0
 31
0.0
  0
LINE
  5
F4
  8
DETAIL
 10
1176.0
 20
1557.5
 30
0.0
 11
916.0
 21
1557.5
 31
0.0
  0
LINE
  5
F5
  8
DETAIL
 10
876.0
 20
1557.5
 30
0.0
 11
616.0
 21
1557.5
 31
0.0
  0
LINE
  5
F6
  8
DETAIL
 10
1216.0
 20
262.5
 30
0.0
 11
1476.0
 21
262.5
 31
0.0
  0
LINE
  5
F7
  8
DETAIL
 10
916.0
 20
262.5
 30
0.0
 11
1176.0
 21
262.5
 31
0.0
  0
LINE
  5
F8
  8
DETAIL
 10
646.0
 20
940.0
 30
0.0
 11
646.0
 21
1440.0
 31
0.0
  0
LINE
  5
F9
  8
DETAIL
 10
646.0
 20
1440.0
 30
0.0
 11
1146.0
 21
1440.0
 31
0.0
  0
LINE
  5
FA
  8
DETAIL
 10
1146.0
 20
1440.0
 30
0.0
 11
1146.0
 21
940.0
 31
0.0
  0
LINE
  5
FB
  8
DETAIL
 10
1146.0
 20
940.0
 30
0.0
 11
646.0
 21
940.0
 31
0.0
  0
LINE
  5
FC
  8
DETAIL
 10
828.5
 20
1456.0
 30
0.0
 11
963.5
 21
1456.0
 31
0.0
  0
LINE
  5
FD
  8
DETAIL
 10
828.5
 20
1470.0
 30
0.0
 11
963.5
 21
1470.0
 31
0.0
  0
LINE
  5
FE
  8
DETAIL
 10
828.5
 20
1484.0
 30
0.0
 11
963.5
 21
1484.0
 31
0.0
  0
LINE
  5
FF
  8
DETAIL
 10
916.0
 20
1440.0
 30
0.0
 11
916.0
 21
1456.0
 31
0.0
  0
LINE
  5
100
  8
DETAIL
 10
876.0
 20
1440.0
 30
0.0
 11
876.0
 21
1456.0
 31
0.0
  0
LINE
  5
101
  8
DETAIL
 10
828.5
 20
1456.0
 30
0.0
 11
828.5
 21
1484.0
 31
0.0
  0
LINE
  5
102
  8
DETAIL
 10
963.5
 20
1456.0
 30
0.0
 11
963.5
 21
1484.0
 31
0.0
  0
LINE
  5
103
  8
DETAIL
 10
916.0
 20
1484.0
 30
0.0
 11
916.0
 21
1557.5
 31
0.0
  0
LINE
  5
104
  8
DETAIL
 10
876.0
 20
1484.0
 30
0.0
 11
876.0
 21
1557.5
 31
0.0
  0
LINE
  5
105
  8
DETAIL
 10
1176.0
 20
1557.5
 30
0.0
 11
1176.0
 21
924.0
 31
0.0
  0
LINE
  5
106
  8
DETAIL
 10
1216.0
 20
1557.5
 30
0.0
 11
1216.0
 21
924.0
 31
0.0
  0
LINE
  5
107
  8
DETAIL
 10
963.5
 20
924.0
 30
0.0
 11
963.5
 21
896.0
 31
0.0
  0
LINE
  5
108
  8
DETAIL
 10
828.5
 20
924.0
 30
0.0
 11
828.5
 21
896.0
 31
0.0
  0
LINE
  5
109
  8
DETAIL
 10
876.0
 20
940.0
 30
0.0
 11
876.0
 21
924.0
 31
0.0
  0
LINE
  5
10A
  8
DETAIL
 10
916.0
 20
940.0
 30
0.0
 11
916.0
 21
924.0
 31
0.0
  0
LINE
  5
10B
  8
DETAIL
 10
828.5
 20
896.0
 30
0.0
 11
963.5
 21
896.0
 31
0.0
  0
LINE
  5
10C
  8
DETAIL
 10
828.5
 20
910.0
 30
0.0
 11
963.5
 21
910.0
 31
0.0
  0
LINE
  5
10D
  8
DETAIL
 10
828.5
 20
924.0
 30
0.0
 11
963.5
 21
924.0
 31
0.0
  0
LINE
  5
10E
  8
DETAIL
 10
1128.5
 20
364.0
 30
0.0
 11
1263.5
 21
364.0
 31
0.0
  0
LINE
  5
10F
  8
DETAIL
 10
1128.5
 20
350.0
 30
0.0
 11
1263.5
 21
350.0
 31
0.0
  0
LINE
  5
110
  8
DETAIL
 10
1128.5
 20
336.0
 30
0.0
 11
1263.5
 21
336.0
 31
0.0
  0
LINE
  5
111
  8
DETAIL
 10
1216.0
 20
380.0
 30
0.0
 11
1216.0
 21
364.0
 31
0.0
  0
LINE
  5
112
  8
DETAIL
 10
1176.0
 20
380.0
 30
0.0
 11
1176.0
 21
364.0
 31
0.0
  0
LINE
  5
113
  8
DETAIL
 10
1128.5
 20
364.0
 30
0.0
 11
1128.5
 21
336.0
 31
0.0
  0
LINE
  5
114
  8
DETAIL
 10
1263.5
 20
364.0
 30
0.0
 11
1263.5
 21
336.0
 31
0.0
  0
LINE
  5
115
  8
DETAIL
 10
1216.0
 20
336.0
 30
0.0
 11
1216.0
 21
262.5
 31
0.0
  0
LINE
  5
116
  8
DETAIL
 10
1176.0
 20
336.0
 30
0.0
 11
1176.0
 21
262.5
 31
0.0
  0
LINE
  5
117
  8
DETAIL
 10
1263.5
 20
896.0
 30
0.0
 11
1263.5
 21
924.0
 31
0.0
  0
LINE
  5
118
  8
DETAIL
 10
1128.5
 20
896.0
 30
0.0
 11
1128.5
 21
924.0
 31
0.0
  0
LINE
  5
119
  8
DETAIL
 10
1176.0
 20
880.0
 30
0.0
 11
1176.0
 21
896.0
 31
0.0
  0
LINE
  5
11A
  8
DETAIL
 10
1216.0
 20
880.0
 30
0.0
 11
1216.0
 21
896.0
 31
0.0
  0
LINE
  5
11B
  8
DETAIL
 10
1128.5
 20
924.0
 30
0.0
 11
1263.5
 21
924.0
 31
0.0
  0
LINE
  5
11C
  8
DETAIL
 10
1128.5
 20
910.0
 30
0.0
 11
1263.5
 21
910.0
 31
0.0
  0
LINE
  5
11D
  8
DETAIL
 10
1128.5
 20
896.0
 30
0.0
 11
1263.5
 21
896.0
 31
0.0
  0
LINE
  5
11E
  8
DETAIL
 10
1446.0
 20
380.0
 30
0.0
 11
946.0
 21
380.0
 31
0.0
  0
LINE
  5
11F
  8
DETAIL
 10
1446.0
 20
880.0
 30
0.0
 11
1446.0
 21
380.0
 31
0.0
  0
LINE
  5
120
  8
DETAIL
 10
946.0
 20
880.0
 30
0.0
 11
1446.0
 21
880.0
 31
0.0
  0
LINE
  5
121
  8
DETAIL
 10
946.0
 20
380.0
 30
0.0
 11
946.0
 21
880.0
 31
0.0
  0
LINE
  5
122
  8
DETAIL
 10
876.0
 20
896.0
 30
0.0
 11
876.0
 21
262.5
 31
0.0
  0
LINE
  5
123
  8
DETAIL
 10
916.0
 20
896.0
 30
0.0
 11
916.0
 21
262.5
 31
0.0
  0
LINE
  5
124
  8
DETAIL
 10
1176.0
 20
896.0
 30
0.0
 11
1176.0
 21
880.0
 31
0.0
  0
LINE
  5
125
  8
DETAIL
 10
1216.0
 20
896.0
 30
0.0
 11
1216.0
 21
880.0
 31
0.0
  0
LINE
  5
126
  8
DETAIL
 10
616.0
 20
262.5
 30
0.0
 11
876.0
 21
262.5
 31
0.0
  0
LINE
  5
127
  8
DETAIL
 10
316.0
 20
262.5
 30
0.0
 11
576.0
 21
262.5
 31
0.0
  0
LINE
  5
128
  8
DETAIL
 10
576.0
 20
1557.5
 30
0.0
 11
316.0
 21
1557.5
 31
0.0
  0
LINE
  5
129
  8
DETAIL
 10
616.0
 20
896.0
 30
0.0
 11
616.0
 21
880.0
 31
0.0
  0
LINE
  5
12A
  8
DETAIL
 10
576.0
 20
896.0
 30
0.0
 11
576.0
 21
880.0
 31
0.0
  0
LINE
  5
12B
  8
DETAIL
 10
316.0
 20
896.0
 30
0.0
 11
316.0
 21
262.5
 31
0.0
  0
LINE
  5
12C
  8
DETAIL
 10
276.0
 20
896.0
 30
0.0
 11
276.0
 21
262.5
 31
0.0
  0
LINE
  5
12D
  8
DETAIL
 10
346.0
 20
380.0
 30
0.0
 11
346.0
 21
880.0
 31
0.0
  0
LINE
  5
12E
  8
DETAIL
 10
346.0
 20
880.0
 30
0.0
 11
846.0
 21
880.0
 31
0.0
  0
LINE
  5
12F
  8
DETAIL
 10
846.0
 20
880.0
 30
0.0
 11
846.0
 21
380.0
 31
0.0
  0
LINE
  5
130
  8
DETAIL
 10
846.0
 20
380.0
 30
0.0
 11
346.0
 21
380.0
 31
0.0
  0
LINE
  5
131
  8
DETAIL
 10
528.5
 20
896.0
 30
0.0
 11
663.5
 21
896.0
 31
0.0
  0
LINE
  5
132
  8
DETAIL
 10
528.5
 20
910.0
 30
0.0
 11
663.5
 21
910.0
 31
0.0
  0
LINE
  5
133
  8
DETAIL
 10
528.5
 20
924.0
 30
0.0
 11
663.5
 21
924.0
 31
0.0
  0
LINE
  5
134
  8
DETAIL
 10
616.0
 20
880.0
 30
0.0
 11
616.0
 21
896.0
 31
0.0
  0
LINE
  5
135
  8
DETAIL
 10
576.0
 20
880.0
 30
0.0
 11
576.0
 21
896.0
 31
0.0
  0
LINE
  5
136
  8
DETAIL
 10
528.5
 20
896.0
 30
0.0
 11
528.5
 21
924.0
 31
0.0
  0
LINE
  5
137
  8
DETAIL
 10
663.5
 20
896.0
 30
0.0
 11
663.5
 21
924.0
 31
0.0
  0
LINE
  5
138
  8
DETAIL
 10
576.0
 20
336.0
 30
0.0
 11
576.0
 21
262.5
 31
0.0
  0
LINE
  5
139
  8
DETAIL
 10
616.0
 20
336.0
 30
0.0
 11
616.0
 21
262.5
 31
0.0
  0
LINE
  5
13A
  8
DETAIL
 10
663.5
 20
364.0
 30
0.0
 11
663.5
 21
336.0
 31
0.0
  0
LINE
  5
13B
  8
DETAIL
 10
528.5
 20
364.0
 30
0.0
 11
528.5
 21
336.0
 31
0.0
  0
LINE
  5
13C
  8
DETAIL
 10
576.0
 20
380.0
 30
0.0
 11
576.0
 21
364.0
 31
0.0
  0
LINE
  5
13D
  8
DETAIL
 10
616.0
 20
380.0
 30
0.0
 11
616.0
 21
364.0
 31
0.0
  0
LINE
  5
13E
  8
DETAIL
 10
528.5
 20
336.0
 30
0.0
 11
663.5
 21
336.0
 31
0.0
  0
LINE
  5
13F
  8
DETAIL
 10
528.5
 20
350.0
 30
0.0
 11
663.5
 21
350.0
 31
0.0
  0
LINE
  5
140
  8
DETAIL
 10
528.5
 20
364.0
 30
0.0
 11
663.5
 21
364.0
 31
0.0
  0
LINE
  5
141
  8
DETAIL
 10
228.5
 20
924.0
 30
0.0
 11
363.5
 21
924.0
 31
0.0
  0
LINE
  5
142
  8
DETAIL
 10
228.5
 20
910.0
 30
0.0
 11
363.5
 21
910.0
 31
0.0
  0
LINE
  5
143
  8
DETAIL
 10
228.5
 20
896.0
 30
0.0
 11
363.5
 21
896.0
 31
0.0
  0
LINE
  5
144
  8
DETAIL
 10
316.0
 20
940.0
 30
0.0
 11
316.0
 21
924.0
 31
0.0
  0
LINE
  5
145
  8
DETAIL
 10
276.0
 20
940.0
 30
0.0
 11
276.0
 21
924.0
 31
0.0
  0
LINE
  5
146
  8
DETAIL
 10
228.5
 20
924.0
 30
0.0
 11
228.5
 21
896.0
 31
0.0
  0
LINE
  5
147
  8
DETAIL
 10
363.5
 20
924.0
 30
0.0
 11
363.5
 21
896.0
 31
0.0
  0
LINE
  5
148
  8
DETAIL
 10
616.0
 20
1557.5
 30
0.0
 11
616.0
 21
924.0
 31
0.0
  0
LINE
  5
149
  8
DETAIL
 10
576.0
 20
1557.5
 30
0.0
 11
576.0
 21
924.0
 31
0.0
  0
LINE
  5
14A
  8
DETAIL
 10
276.0
 20
1557.5
 30
0.0
 11
23.0
 21
1557.5
 31
0.0
  0
LINE
  5
14B
  8
DETAIL
 10
276.0
 20
1484.0
 30
0.0
 11
276.0
 21
1557.5
 31
0.0
  0
LINE
  5
14C
  8
DETAIL
 10
316.0
 20
1484.0
 30
0.0
 11
316.0
 21
1557.5
 31
0.0
  0
LINE
  5
14D
  8
DETAIL
 10
363.5
 20
1456.0
 30
0.0
 11
363.5
 21
1484.0
 31
0.0
  0
LINE
  5
14E
  8
DETAIL
 10
228.5
 20
1456.0
 30
0.0
 11
228.5
 21
1484.0
 31
0.0
  0
LINE
  5
14F
  8
DETAIL
 10
276.0
 20
1440.0
 30
0.0
 11
276.0
 21
1456.0
 31
0.0
  0
LINE
  5
150
  8
DETAIL
 10
316.0
 20
1440.0
 30
0.0
 11
316.0
 21
1456.0
 31
0.0
  0
LINE
  5
151
  8
DETAIL
 10
228.5
 20
1484.0
 30
0.0
 11
363.5
 21
1484.0
 31
0.0
  0
LINE
  5
152
  8
DETAIL
 10
228.5
 20
1470.0
 30
0.0
 11
363.5
 21
1470.0
 31
0.0
  0
LINE
  5
153
  8
DETAIL
 10
228.5
 20
1456.0
 30
0.0
 11
363.5
 21
1456.0
 31
0.0
  0
LINE
  5
154
  8
DETAIL
 10
546.0
 20
940.0
 30
0.0
 11
46.0
 21
940.0
 31
0.0
  0
LINE
  5
155
  8
DETAIL
 10
546.0
 20
1440.0
 30
0.0
 11
546.0
 21
940.0
 31
0.0
  0
LINE
  5
156
  8
DETAIL
 10
46.0
 20
1440.0
 30
0.0
 11
546.0
 21
1440.0
 31
0.0
  0
LINE
  5
157
  8
DETAIL
 10
46.0
 20
940.0
 30
0.0
 11
46.0
 21
1440.0
 31
0.0
  0
ARC
  5
158
  8
DETAIL
 10
-87.0
 20
1870.0
 30
0.0
 40
25.4
 50
90.0
 51
270.0
  0
LINE
  5
159
  8
DETAIL
 10
-87.0
 20
1844.6
 30
0.0
 11
281.475
 21
1844.6
 31
0.0
  0
LINE
  5
15A
  8
DETAIL
 10
-87.0
 20
1895.4
 30
0.0
 11
2105.0
 21
1895.4
 31
0.0
  0
LINE
  5
15B
  8
DETAIL
 10
2105.0
 20
1844.6
 30
0.0
 11
2105.0
 21
1895.4
 31
0.0
  0
LINE
  5
15C
  8
DETAIL
 10
0.0
 20
200.0
 30
0.0
 11
0.0
 21
1500.0
 31
0.0
  0
LINE
  5
15D
  8
DETAIL
 10
28.0
 20
262.5
 30
0.0
 11
276.0
 21
262.5
 31
0.0
  0
LINE
  5
15E
  8
DETAIL
 10
28.0
 20
137.5
 30
0.0
 11
2092.0
 21
137.5
 31
0.0
  0
LINE
  5
15F
  8
DETAIL
 10
2110.0
 20
320.0
 30
0.0
 11
2110.0
 21
80.0
 31
0.0
  0
LINE
  5
160
  8
DETAIL
 10
10.0
 20
320.0
 30
0.0
 11
10.0
 21
80.0
 31
0.0
  0
LINE
  5
161
  8
DETAIL
 10
10.0
 20
320.0
 30
0.0
 11
28.0
 21
320.0
 31
0.0
  0
LINE
  5
162
  8
DETAIL
 10
10.0
 20
80.0
 30
0.0
 11
28.0
 21
80.0
 31
0.0
  0
LINE
  5
163
  8
DETAIL
 10
2092.0
 20
320.0
 30
0.0
 11
2092.0
 21
80.0
 31
0.0
  0
LINE
  5
164
  8
DETAIL
 10
28.0
 20
320.0
 30
0.0
 11
28.0
 21
80.0
 31
0.0
  0
LINE
  5
165
  8
DETAIL
 10
2092.0
 20
320.0
 30
0.0
 11
2128.0
 21
320.0
 31
0.0
  0
LINE
  5
166
  8
DETAIL
 10
2092.0
 20
80.0
 30
0.0
 11
2128.0
 21
80.0
 31
0.0
  0
LINE
  5
167
  8
DETAIL
 10
23.0
 20
1500.0
 30
0.0
 11
-13.0
 21
1500.0
 31
0.0
  0
LINE
  5
168
  8
DETAIL
 10
23.0
 20
1740.0
 30
0.0
 11
-13.0
 21
1740.0
 31
0.0
  0
LINE
  5
169
  8
DETAIL
 10
2087.0
 20
1740.0
 30
0.0
 11
2087.0
 21
1500.0
 31
0.0
  0
LINE
  5
16A
  8
DETAIL
 10
23.0
 20
1740.0
 30
0.0
 11
23.0
 21
1500.0
 31
0.0
  0
LINE
  5
16B
  8
DETAIL
 10
2105.0
 20
1500.0
 30
0.0
 11
2087.0
 21
1500.0
 31
0.0
  0
LINE
  5
16C
  8
DETAIL
 10
2105.0
 20
1740.0
 30
0.0
 11
2087.0
 21
1740.0
 31
0.0
  0
LINE
  5
16D
  8
DETAIL
 10
2105.0
 20
1740.0
 30
0.0
 11
2105.0
 21
1500.0
 31
0.0
  0
LINE
  5
16E
  8
DETAIL
 10
5.0
 20
1740.0
 30
0.0
 11
5.0
 21
1500.0
 31
0.0
  0
LINE
  5
16F
  8
DETAIL
 10
2087.0
 20
1557.5
 30
0.0
 11
1816.0
 21
1557.5
 31
0.0
  0
LINE
  5
170
  8
DETAIL
 10
2087.0
 20
1682.5
 30
0.0
 11
23.0
 21
1682.5
 31
0.0
  0
LINE
  5
171
  8
DETAIL
 10
1732.5
 20
0.0
 30
0.0
 11
1582.5
 21
0.0
 31
0.0
  0
LINE
  5
172
  8
DETAIL
 10
2115.0
 20
1610.0
 30
0.0
 11
2115.0
 21
320.0
 31
0.0
  0
LINE
  5
173
  8
DETAIL
  6
DASHED
 10
820.5
 20
1635.0
 30
0.0
 11
820.5
 21
1610.0
 31
0.0
  0
LINE
  5
174
  8
DETAIL
  6
DASHED
 10
1294.5
 20
1635.0
 30
0.0
 11
1294.5
 21
1610.0
 31
0.0
  0
LINE
  5
175
  8
DETAIL
 10
1563.5
 20
1456.0
 30
0.0
 11
1563.5
 21
1484.0
 31
0.0
  0
LINE
  5
176
  8
DETAIL
 10
1428.5
 20
1456.0
 30
0.0
 11
1428.5
 21
1484.0
 31
0.0
  0
LINE
  5
177
  8
DETAIL
 10
1476.0
 20
1440.0
 30
0.0
 11
1476.0
 21
1456.0
 31
0.0
  0
LINE
  5
178
  8
DETAIL
 10
1516.0
 20
1440.0
 30
0.0
 11
1516.0
 21
1456.0
 31
0.0
  0
LINE
  5
179
  8
DETAIL
 10
1428.5
 20
1484.0
 30
0.0
 11
1563.5
 21
1484.0
 31
0.0
  0
LINE
  5
17A
  8
DETAIL
 10
1428.5
 20
1470.0
 30
0.0
 11
1563.5
 21
1470.0
 31
0.0
  0
LINE
  5
17B
  8
DETAIL
 10
1428.5
 20
1456.0
 30
0.0
 11
1563.5
 21
1456.0
 31
0.0
  0
LINE
  5
17C
  8
DETAIL
 10
1746.0
 20
940.0
 30
0.0
 11
1246.0
 21
940.0
 31
0.0
  0
LINE
  5
17D
  8
DETAIL
 10
1746.0
 20
1440.0
 30
0.0
 11
1746.0
 21
940.0
 31
0.0
  0
LINE
  5
17E
  8
DETAIL
 10
1246.0
 20
1440.0
 30
0.0
 11
1746.0
 21
1440.0
 31
0.0
  0
LINE
  5
17F
  8
DETAIL
 10
1246.0
 20
940.0
 30
0.0
 11
1246.0
 21
1440.0
 31
0.0
  0
LINE
  5
180
  8
DETAIL
 10
1296.115209
 20
1390.0
 30
0.0
 11
1421.115209
 21
1390.0
 31
0.0
  0
LINE
  5
181
  8
DETAIL
 10
1296.115209
 20
1168.0
 30
0.0
 11
1421.115209
 21
1168.0
 31
0.0
  0
LINE
  5
182
  8
DETAIL
 10
1296.115209
 20
1390.0
 30
0.0
 11
1296.115209
 21
1168.0
 31
0.0
  0
LINE
  5
183
  8
DETAIL
 10
1421.115209
 20
1390.0
 30
0.0
 11
1421.115209
 21
1168.0
 31
0.0
  0
CIRCLE
  5
184
  8
DETAIL
 10
1386.115209
 20
1360.0
 30
0.0
 40
4.0
  0
CIRCLE
  5
185
  8
DETAIL
 10
1386.115209
 20
1345.0
 30
0.0
 40
4.0
  0
CIRCLE
  5
186
  8
DETAIL
 10
1386.115209
 20
1330.0
 30
0.0
 40
4.0
  0
CIRCLE
  5
187
  8
DETAIL
 10
1386.115209
 20
1315.0
 30
0.0
 40
4.0
  0
CIRCLE
  5
188
  8
DETAIL
 10
1681.0
 20
1285.0
 30
0.0
 40
8.0
  0
LINE
  5
189
  8
DETAIL
 10
1386.115209
 20
1198.0
 30
0.0
 11
1386.115209
 21
1178.0
 31
0.0
  0
CIRCLE
  5
18A
  8
DETAIL
 10
1386.115209
 20
1270.0
 30
0.0
 40
4.0
  0
LINE
  5
18B
  8
DETAIL
 10
1371.115209
 20
1178.0
 30
0.0
 11
1386.115209
 21
1178.0
 31
0.0
  0
LINE
  5
18C
  8
DETAIL
 10
1371.115209
 20
1198.0
 30
0.0
 11
1386.115209
 21
1198.0
 31
0.0
  0
LINE
  5
18D
  8
DETAIL
 10
1371.115209
 20
1198.0
 30
0.0
 11
1371.115209
 21
1178.0
 31
0.0
  0
LINE
  5
18E
  8
DETAIL
 10
1371.115209
 20
1183.0
 30
0.0
 11
1386.115209
 21
1183.0
 31
0.0
  0
LINE
  5
18F
  8
DETAIL
 10
1746.0
 20
1090.0
 30
0.0
 11
1246.0
 21
1090.0
 31
0.0
  0
LINE
  5
190
  8
DETAIL
 10
1516.0
 20
1484.0
 30
0.0
 11
1516.0
 21
1557.5
 31
0.0
  0
LINE
  5
191
  8
DETAIL
 10
1476.0
 20
1484.0
 30
0.0
 11
1476.0
 21
1557.5
 31
0.0
  0
LINE
  5
192
  8
DETAIL
 10
1776.0
 20
1557.5
 30
0.0
 11
1776.0
 21
1484.0
 31
0.0
  0
LINE
  5
193
  8
DETAIL
 10
1816.0
 20
1557.5
 30
0.0
 11
1816.0
 21
1484.0
 31
0.0
  0
LINE
  5
194
  8
DETAIL
 10
1428.5
 20
924.0
 30
0.0
 11
1563.5
 21
924.0
 31
0.0
  0
LINE
  5
195
  8
DETAIL
 10
1428.5
 20
910.0
 30
0.0
 11
1563.5
 21
910.0
 31
0.0
  0
LINE
  5
196
  8
DETAIL
 10
1428.5
 20
896.0
 30
0.0
 11
1563.5
 21
896.0
 31
0.0
  0
LINE
  5
197
  8
DETAIL
 10
1516.0
 20
940.0
 30
0.0
 11
1516.0
 21
924.0
 31
0.0
  0
LINE
  5
198
  8
DETAIL
 10
1476.0
 20
940.0
 30
0.0
 11
1476.0
 21
924.0
 31
0.0
  0
LINE
  5
199
  8
DETAIL
 10
1428.5
 20
924.0
 30
0.0
 11
1428.5
 21
896.0
 31
0.0
  0
LINE
  5
19A
  8
DETAIL
 10
1563.5
 20
924.0
 30
0.0
 11
1563.5
 21
896.0
 31
0.0
  0
LINE
  5
19B
  8
DETAIL
 10
1516.0
 20
896.0
 30
0.0
 11
1516.0
 21
262.5
 31
0.0
  0
LINE
  5
19C
  8
DETAIL
 10
1476.0
 20
896.0
 30
0.0
 11
1476.0
 21
262.5
 31
0.0
  0
LINE
  5
19D
  8
DETAIL
 10
1863.5
 20
364.0
 30
0.0
 11
1863.5
 21
336.0
 31
0.0
  0
LINE
  5
19E
  8
DETAIL
 10
1728.5
 20
364.0
 30
0.0
 11
1728.5
 21
336.0
 31
0.0
  0
LINE
  5
19F
  8
DETAIL
 10
1728.5
 20
336.0
 30
0.0
 11
1863.5
 21
336.0
 31
0.0
  0
LINE
  5
1A0
  8
DETAIL
 10
1728.5
 20
350.0
 30
0.0
 11
1863.5
 21
350.0
 31
0.0
  0
LINE
  5
1A1
  8
DETAIL
 10
1728.5
 20
364.0
 30
0.0
 11
1863.5
 21
364.0
 31
0.0
  0
LINE
  5
1A2
  8
DETAIL
 10
1816.0
 20
336.0
 30
0.0
 11
1816.0
 21
262.5
 31
0.0
  0
LINE
  5
1A3
  8
DETAIL
 10
1776.0
 20
336.0
 30
0.0
 11
1776.0
 21
262.5
 31
0.0
  0
LINE
  5
1A4
  8
DETAIL
 10
1816.0
 20
262.5
 30
0.0
 11
2092.0
 21
262.5
 31
0.0
  0
LINE
  5
1A5
  8
DETAIL
 10
1516.0
 20
262.5
 30
0.0
 11
1776.0
 21
262.5
 31
0.0
  0
LINE
  5
1A6
  8
DETAIL
 10
1476.0
 20
1557.5
 30
0.0
 11
1216.0
 21
1557.5
 31
0.0
  0
LINE
  5
1A7
  8
DETAIL
 10
1776.0
 20
1557.5
 30
0.0
 11
1516.0
 21
1557.5
 31
0.0
  0
LINE
  5
1A8
  8
DETAIL
 10
1481.475
 20
1682.5
 30
0.0
 11
1481.475
 21
1844.6
 31
0.0
  0
LINE
  5
1A9
  8
DETAIL
 10
1500.525
 20
1682.5
 30
0.0
 11
1500.525
 21
1844.6
 31
0.0
  0
LINE
  5
1AA
  8
DETAIL
 10
1500.525
 20
1844.6
 30
0.0
 11
1781.475
 21
1844.6
 31
0.0
  0
LINE
  5
1AB
  8
DETAIL
 10
1800.525
 20
1682.5
 30
0.0
 11
1800.525
 21
1844.6
 31
0.0
  0
LINE
  5
1AC
  8
DETAIL
 10
1781.475
 20
1682.5
 30
0.0
 11
1781.475
 21
1844.6
 31
0.0
  0
LINE
  5
1AD
  8
DETAIL
 10
1800.525
 20
1844.6
 30
0.0
 11
2105.0
 21
1844.6
 31
0.0
  0
TEXT
  5
1AE
  8
PLANNING
 10
2421.294829
 20
1705.522966
 30
0.0
 40
25.0
  1
TOP CLEARANCE DEPENDANT UPON
  0
TEXT
  5
1AF
  8
PLANNING
 10
2421.294829
 20
1665.522966
 30
0.0
 40
25.0
  1
FLUE AND PIPEWORK REQUIREMENTS
  0
ENDSEC
  0
EOF
