  0
SECTION
  2
HEADER
  9
$ACADVER
  1
AC1009
  9
$INSBASE
 10
0.0
 20
0.0
 30
0.0
  9
$EXTMIN
 10
-112.516793
 20
-1257.279972
 30
0.0
  9
$EXTMAX
 10
2123.137432
 20
990.137185
 30
0.0
  9
$LIMMIN
 10
0.0
 20
0.0
  9
$LIMMAX
 10
420.0
 20
297.0
  9
$ORTHOMODE
 70
     1
  9
$REGENMODE
 70
     1
  9
$FILLMODE
 70
     1
  9
$QTEXTMODE
 70
     0
  9
$MIRRTEXT
 70
     1
  9
$DRAGMODE
 70
     2
  9
$LTSCALE
 40
25.0
  9
$OSMODE
 70
     0
  9
$ATTMODE
 70
     1
  9
$TEXTSIZE
 40
3.0
  9
$TRACEWID
 40
10.0
  9
$TEXTSTYLE
  7
STANDARD
  9
$CLAYER
  8
0
  9
$CELTYPE
  6
BYLAYER
  9
$CECOLOR
 62
   256
  9
$DIMSCALE
 40
1.0
  9
$DIMASZ
 40
25.0
  9
$DIMEXO
 40
15.0
  9
$DIMDLI
 40
10.0
  9
$DIMRND
 40
0.0
  9
$DIMDLE
 40
1.25
  9
$DIMEXE
 40
15.0
  9
$DIMTP
 40
0.0
  9
$DIMTM
 40
0.0
  9
$DIMTXT
 40
25.0
  9
$DIMCEN
 40
-3.0
  9
$DIMTSZ
 40
0.0
  9
$DIMTOL
 70
     0
  9
$DIMLIM
 70
     0
  9
$DIMTIH
 70
     0
  9
$DIMTOH
 70
     0
  9
$DIMSE1
 70
     0
  9
$DIMSE2
 70
     0
  9
$DIMTAD
 70
     0
  9
$DIMZIN
 70
     1
  9
$DIMBLK
  1

  9
$DIMASO
 70
     0
  9
$DIMSHO
 70
     0
  9
$DIMPOST
  1

  9
$DIMAPOST
  1

  9
$DIMALT
 70
     0
  9
$DIMALTD
 70
     2
  9
$DIMALTF
 40
0.039
  9
$DIMLFAC
 40
1.0
  9
$DIMTOFL
 70
     0
  9
$DIMTVP
 40
1.5
  9
$DIMTIX
 70
     0
  9
$DIMSOXD
 70
     0
  9
$DIMSAH
 70
     0
  9
$DIMBLK1
  1

  9
$DIMBLK2
  1

  9
$DIMSTYLE
  2
STANDARD
  9
$DIMCLRD
 70
     0
  9
$DIMCLRE
 70
     0
  9
$DIMCLRT
 70
     0
  9
$DIMTFAC
 40
1.0
  9
$DIMGAP
 40
0.09
  9
$LUNITS
 70
     2
  9
$LUPREC
 70
     2
  9
$SKETCHINC
 40
1.0
  9
$FILLETRAD
 40
0.0
  9
$AUNITS
 70
     0
  9
$AUPREC
 70
     4
  9
$MENU
  1
acad
  9
$ELEVATION
 40
0.0
  9
$PELEVATION
 40
0.0
  9
$THICKNESS
 40
0.0
  9
$LIMCHECK
 70
     0
  9
$BLIPMODE
 70
     0
  9
$CHAMFERA
 40
0.0
  9
$CHAMFERB
 40
0.0
  9
$SKPOLY
 70
     1
  9
$TDCREATE
 40
2448771.375673
  9
$TDUPDATE
 40
2453073.533503
  9
$TDINDWG
 40
0.000787
  9
$TDUSRTIMER
 40
0.000787
  9
$USRTIMER
 70
     1
  9
$ANGBASE
 50
0.0
  9
$ANGDIR
 70
     0
  9
$PDMODE
 70
     3
  9
$PDSIZE
 40
0.0
  9
$PLINEWID
 40
0.0
  9
$COORDS
 70
     1
  9
$SPLFRAME
 70
     0
  9
$SPLINETYPE
 70
     6
  9
$SPLINESEGS
 70
     6
  9
$ATTDIA
 70
     0
  9
$ATTREQ
 70
     1
  9
$HANDLING
 70
 22529
  9
$HANDSEED
  5
1C2
  9
$SURFTAB1
 70
    12
  9
$SURFTAB2
 70
    12
  9
$SURFTYPE
 70
     6
  9
$SURFU
 70
    12
  9
$SURFV
 70
    12
  9
$UCSNAME
  2

  9
$UCSORG
 10
0.0
 20
0.0
 30
0.0
  9
$UCSXDIR
 10
1.0
 20
0.0
 30
0.0
  9
$UCSYDIR
 10
0.0
 20
1.0
 30
0.0
  9
$PUCSNAME
  2

  9
$PUCSORG
 10
0.0
 20
0.0
 30
0.0
  9
$PUCSXDIR
 10
1.0
 20
0.0
 30
0.0
  9
$PUCSYDIR
 10
0.0
 20
1.0
 30
0.0
  9
$USERI1
 70
     0
  9
$USERI2
 70
     0
  9
$USERI3
 70
     0
  9
$USERI4
 70
     0
  9
$USERI5
 70
     0
  9
$USERR1
 40
0.0
  9
$USERR2
 40
0.0
  9
$USERR3
 40
0.0
  9
$USERR4
 40
0.0
  9
$USERR5
 40
0.0
  9
$WORLDVIEW
 70
     0
  9
$SHADEDGE
 70
     3
  9
$SHADEDIF
 70
    70
  9
$TILEMODE
 70
     1
  9
$MAXACTVP
 70
    48
  9
$PLIMCHECK
 70
     0
  9
$PEXTMIN
 10
1.000000E+020
 20
1.000000E+020
 30
1.000000E+020
  9
$PEXTMAX
 10
-1.000000E+020
 20
-1.000000E+020
 30
-1.000000E+020
  9
$PLIMMIN
 10
0.0
 20
0.0
  9
$PLIMMAX
 10
12.0
 20
9.0
  9
$UNITMODE
 70
     0
  9
$VISRETAIN
 70
     0
  9
$PLINEGEN
 70
     0
  9
$PSLTSCALE
 70
     0
  0
ENDSEC
  0
SECTION
  2
TABLES
  0
TABLE
  2
VPORT
 70
     2
  0
VPORT
  2
*ACTIVE
 70
     0
 10
0.0
 20
0.0
 11
1.0
 21
1.0
 12
1005.310319
 22
-133.571393
 13
0.0
 23
0.0
 14
10.0
 24
10.0
 15
0.0
 25
0.0
 16
0.0
 26
0.0
 36
1.0
 17
0.0
 27
0.0
 37
0.0
 40
2273.29912
 41
1.825
 42
50.0
 43
0.0
 44
0.0
 50
0.0
 51
0.0
 71
     0
 72
  2000
 73
     1
 74
     2
 75
     1
 76
     0
 77
     0
 78
     1
  0
ENDTAB
  0
TABLE
  2
LTYPE
 70
     3
  0
LTYPE
  2
CONTINUOUS
 70
     0
  3
Solid line
 72
    65
 73
     0
 40
0.0
  0
LTYPE
  2
CENTER
 70
     0
  3
____ _ ____ _ ____ _ ____ _ ____ _ ____ _ ____
 72
    65
 73
     4
 40
2.0
 49
1.25
 49
-0.25
 49
0.25
 49
-0.25
  0
LTYPE
  2
DASHED
 70
     0
  3
__ __ __ __ __ __ __ __ __ __ __ __ __ __ __
 72
    65
 73
     2
 40
0.75
 49
0.5
 49
-0.25
  0
ENDTAB
  0
TABLE
  2
LAYER
 70
     8
  0
LAYER
  2
0
 70
     0
 62
     7
  6
CONTINUOUS
  0
LAYER
  2
DETAIL
 70
     0
 62
     2
  6
CONTINUOUS
  0
LAYER
  2
DIMENSIONS
 70
     1
 62
     7
  6
CONTINUOUS
  0
LAYER
  2
CENTER
 70
     1
 62
     4
  6
CENTER
  0
LAYER
  2
ORIGIN
 70
     0
 62
     6
  6
CONTINUOUS
  0
LAYER
  2
PLANNING
 70
     1
 62
     1
  6
DASHED
  0
LAYER
  2
STELTXT
 70
     1
 62
     4
  6
CONTINUOUS
  0
LAYER
  2
STELATT
 70
     0
 62
     7
  6
CONTINUOUS
  0
ENDTAB
  0
TABLE
  2
STYLE
 70
     1
  0
STYLE
  2
STANDARD
 70
     0
 40
0.0
 41
1.0
 50
0.0
 71
     0
 42
3.0
  3
simplex
  4

  0
ENDTAB
  0
TABLE
  2
VIEW
 70
     0
  0
ENDTAB
  0
TABLE
  2
UCS
 70
     0
  0
ENDTAB
  0
TABLE
  2
APPID
 70
     1
  0
APPID
  2
ACAD
 70
     0
  0
ENDTAB
  0
TABLE
  2
DIMSTYLE
 70
     1
  0
DIMSTYLE
  2
STANDARD
 70
     0
  3

  4

  5

  6

  7

 40
1.0
 41
0.18
 42
0.0625
 43
0.38
 44
0.18
 45
0.0
 46
0.0
 47
0.0
 48
0.0
140
0.18
141
0.09
142
0.0
143
25.4
144
1.0
145
0.0
146
1.0
147
0.09
 71
     0
 72
     0
 73
     1
 74
     1
 75
     0
 76
     0
 77
     0
 78
     0
170
     0
171
     2
172
     0
173
     0
174
     0
175
     0
176
     0
177
     0
178
     0
  0
ENDTAB
  0
ENDSEC
  0
SECTION
  2
BLOCKS
  0
BLOCK
  8
0
  2
$MODEL_SPACE
 70
     0
 10
0.0
 20
0.0
 30
0.0
  3
$MODEL_SPACE
  1

  0
ENDBLK
  5
2A
  8
0
  0
BLOCK
 67
     1
  8
0
  2
$PAPER_SPACE
 70
     0
 10
0.0
 20
0.0
 30
0.0
  3
$PAPER_SPACE
  1

  0
ENDBLK
  5
28
 67
     1
  8
0
  0
ENDSEC
  0
SECTION
  2
ENTITIES
  0
LINE
  5
2D
  8
CENTER
 10
-87.0
 20
350.446313
 30
0.0
 11
-87.0
 21
487.75
 31
0.0
  0
TEXT
  5
2E
  8
DIMENSIONS
 10
-63.738095
 20
565.0
 30
0.0
 40
25.0
  1
87
  0
SOLID
  5
30
  8
DIMENSIONS
 10
-25.0
 20
535.833333
 30
0.0
 11
-25.0
 21
544.166667
 31
0.0
 12
0.0
 22
540.0
 32
0.0
 13
0.0
 23
540.0
 33
0.0
  0
LINE
  5
31
  8
DIMENSIONS
 10
-25.0
 20
540.0
 30
0.0
 11
-62.0
 21
540.0
 31
0.0
  0
LINE
  5
32
  8
DIMENSIONS
 10
-87.0
 20
502.75
 30
0.0
 11
-87.0
 21
555.0
 31
0.0
  0
SOLID
  5
33
  8
DIMENSIONS
 10
-62.0
 20
535.833333
 30
0.0
 11
-62.0
 21
544.166667
 31
0.0
 12
-87.0
 22
540.0
 32
0.0
 13
-87.0
 23
540.0
 33
0.0
  0
POLYLINE
  5
34
  8
ORIGIN
 66
     1
 10
0.0
 20
0.0
 30
0.0
  0
VERTEX
  5
1BB
  8
ORIGIN
 10
0.0
 20
0.0
 30
0.0
  0
VERTEX
  5
1BC
  8
ORIGIN
 10
-100.0
 20
-100.0
 30
0.0
  0
VERTEX
  5
1BD
  8
ORIGIN
 10
-100.0
 20
100.0
 30
0.0
  0
VERTEX
  5
1BE
  8
ORIGIN
 10
100.0
 20
-100.0
 30
0.0
  0
VERTEX
  5
1BF
  8
ORIGIN
 10
100.0
 20
100.0
 30
0.0
  0
VERTEX
  5
1C0
  8
ORIGIN
 10
0.0
 20
0.0
 30
0.0
  0
SEQEND
  5
1C1
  8
ORIGIN
  0
LINE
  5
3C
  8
DIMENSIONS
 10
2061.0
 20
0.0
 30
0.0
 11
2355.0
 21
0.0
 31
0.0
  0
LINE
  5
3D
  8
DETAIL
 10
46.0
 20
350.4
 30
0.0
 11
46.0
 21
390.0
 31
0.0
  0
LINE
  5
3E
  8
DETAIL
 10
546.0
 20
350.4
 30
0.0
 11
546.0
 21
390.0
 31
0.0
  0
LINE
  5
3F
  8
DETAIL
 10
646.0
 20
350.4
 30
0.0
 11
646.0
 21
390.0
 31
0.0
  0
LINE
  5
40
  8
DETAIL
 10
1146.0
 20
350.4
 30
0.0
 11
1146.0
 21
390.0
 31
0.0
  0
LINE
  5
41
  8
DETAIL
 10
1246.0
 20
350.4
 30
0.0
 11
1246.0
 21
390.0
 31
0.0
  0
LINE
  5
42
  8
DETAIL
 10
1746.0
 20
350.4
 30
0.0
 11
1746.0
 21
390.0
 31
0.0
  0
LINE
  5
43
  8
DETAIL
 10
2046.0
 20
350.4
 30
0.0
 11
2046.0
 21
390.0
 31
0.0
  0
LINE
  5
44
  8
DETAIL
 10
2046.0
 20
287.5
 30
0.0
 11
2046.0
 21
299.6
 31
0.0
  0
LINE
  5
45
  8
DETAIL
 10
1746.0
 20
287.5
 30
0.0
 11
1746.0
 21
299.6
 31
0.0
  0
LINE
  5
46
  8
DETAIL
 10
1246.0
 20
287.5
 30
0.0
 11
1246.0
 21
299.6
 31
0.0
  0
LINE
  5
47
  8
DETAIL
 10
1146.0
 20
287.5
 30
0.0
 11
1146.0
 21
299.6
 31
0.0
  0
LINE
  5
48
  8
DETAIL
 10
646.0
 20
287.5
 30
0.0
 11
646.0
 21
299.6
 31
0.0
  0
LINE
  5
49
  8
DETAIL
 10
546.0
 20
287.5
 30
0.0
 11
546.0
 21
299.6
 31
0.0
  0
LINE
  5
4A
  8
DETAIL
 10
46.0
 20
287.5
 30
0.0
 11
46.0
 21
299.6
 31
0.0
  0
LINE
  5
4B
  8
DETAIL
 10
46.0
 20
0.0
 30
0.0
 11
2046.0
 21
0.0
 31
0.0
  0
LINE
  5
4C
  8
DETAIL
 10
2046.0
 20
0.0
 30
0.0
 11
2046.0
 21
162.5
 31
0.0
  0
LINE
  5
4D
  8
DETAIL
 10
1746.0
 20
0.0
 30
0.0
 11
1746.0
 21
162.5
 31
0.0
  0
LINE
  5
4E
  8
DETAIL
 10
1246.0
 20
0.0
 30
0.0
 11
1246.0
 21
162.5
 31
0.0
  0
LINE
  5
4F
  8
DETAIL
 10
1146.0
 20
0.0
 30
0.0
 11
1146.0
 21
162.5
 31
0.0
  0
LINE
  5
50
  8
DETAIL
 10
646.0
 20
0.0
 30
0.0
 11
646.0
 21
162.5
 31
0.0
  0
LINE
  5
51
  8
DETAIL
 10
546.0
 20
0.0
 30
0.0
 11
546.0
 21
162.5
 31
0.0
  0
LINE
  5
52
  8
DETAIL
 10
46.0
 20
0.0
 30
0.0
 11
46.0
 21
162.5
 31
0.0
  0
LINE
  5
53
  8
DETAIL
 10
5.0
 20
105.0
 30
0.0
 11
-8.0
 21
105.0
 31
0.0
  0
LINE
  5
54
  8
DETAIL
 10
-8.0
 20
105.0
 30
0.0
 11
-8.0
 21
299.6
 31
0.0
  0
CIRCLE
  5
55
  8
DETAIL
 10
1057.5
 20
690.0
 30
0.0
 40
237.0
  0
LINE
  5
56
  8
DETAIL
 10
0.0
 20
390.0
 30
0.0
 11
0.0
 21
990.0
 31
0.0
  0
LINE
  5
57
  8
DETAIL
 10
2115.0
 20
390.0
 30
0.0
 11
2115.0
 21
990.0
 31
0.0
  0
LINE
  5
58
  8
DETAIL
 10
0.0
 20
990.0
 30
0.0
 11
2115.0
 21
990.0
 31
0.0
  0
LINE
  5
59
  8
DETAIL
 10
0.0
 20
390.0
 30
0.0
 11
2115.0
 21
390.0
 31
0.0
  0
LINE
  5
5A
  8
DETAIL
 10
23.0
 20
287.5
 30
0.0
 11
2087.0
 21
287.5
 31
0.0
  0
LINE
  5
5B
  8
DETAIL
 10
23.0
 20
162.5
 30
0.0
 11
2087.0
 21
162.5
 31
0.0
  0
LINE
  5
5C
  8
DETAIL
 10
5.0
 20
105.0
 30
0.0
 11
23.0
 21
105.0
 31
0.0
  0
LINE
  5
5D
  8
DETAIL
 10
23.0
 20
105.0
 30
0.0
 11
23.0
 21
299.6
 31
0.0
  0
LINE
  5
5E
  8
DETAIL
 10
5.0
 20
105.0
 30
0.0
 11
5.0
 21
299.6
 31
0.0
  0
LINE
  5
5F
  8
DETAIL
 10
2087.0
 20
105.0
 30
0.0
 11
2087.0
 21
299.6
 31
0.0
  0
LINE
  5
60
  8
DETAIL
 10
2123.0
 20
105.0
 30
0.0
 11
2123.0
 21
345.0
 31
0.0
  0
LINE
  5
61
  8
DETAIL
 10
2105.0
 20
345.0
 30
0.0
 11
2123.0
 21
345.0
 31
0.0
  0
LINE
  5
62
  8
DETAIL
 10
2087.0
 20
105.0
 30
0.0
 11
2123.0
 21
105.0
 31
0.0
  0
LINE
  5
63
  8
DETAIL
 10
2105.0
 20
105.0
 30
0.0
 11
2105.0
 21
299.6
 31
0.0
  0
LINE
  5
64
  8
DETAIL
 10
-36.2
 20
350.4
 30
0.0
 11
2105.0
 21
350.4
 31
0.0
  0
LINE
  5
65
  8
DETAIL
 10
-36.2
 20
299.6
 30
0.0
 11
2105.0
 21
299.6
 31
0.0
  0
LINE
  5
66
  8
DETAIL
 10
2105.0
 20
299.6
 30
0.0
 11
2105.0
 21
350.4
 31
0.0
  0
LINE
  5
67
  8
CENTER
 10
1328.5
 20
690.0
 30
0.0
 11
786.5
 21
690.0
 31
0.0
  0
LINE
  5
68
  8
CENTER
 10
1057.5
 20
961.0
 30
0.0
 11
1057.5
 21
419.0
 31
0.0
  0
TEXT
  5
69
  8
STELTXT
 10
1606.965407
 20
1319.684255
 30
0.0
 40
25.0
  1
FLUE OUTLET
  0
LINE
  5
6A
  8
STELTXT
 10
1531.056212
 20
1332.960691
 30
0.0
 11
1581.35223
 21
1332.960691
 31
0.0
  0
LINE
  5
6B
  8
STELTXT
 10
1072.32583
 20
710.12945
 30
0.0
 11
1531.056212
 21
1332.960691
 31
0.0
  0
SOLID
  5
6C
  8
STELTXT
 10
1075.680739
 20
707.658478
 30
0.0
 11
1068.970922
 21
712.600422
 31
0.0
 12
1057.5
 22
690.0
 32
0.0
 13
1057.5
 23
690.0
 33
0.0
  0
LINE
  5
6D
  8
DIMENSIONS
 10
820.5
 20
765.0
 30
0.0
 11
820.5
 21
1130.0
 31
0.0
  0
LINE
  5
6E
  8
DIMENSIONS
 10
1294.5
 20
765.0
 30
0.0
 11
1294.5
 21
1130.0
 31
0.0
  0
LINE
  5
6F
  8
DIMENSIONS
 10
845.5
 20
1115.0
 30
0.0
 11
1269.5
 21
1115.0
 31
0.0
  0
SOLID
  5
70
  8
DIMENSIONS
 10
845.5
 20
1110.833333
 30
0.0
 11
845.5
 21
1119.166667
 31
0.0
 12
820.5
 22
1115.0
 32
0.0
 13
820.5
 23
1115.0
 33
0.0
  0
SOLID
  5
71
  8
DIMENSIONS
 10
1269.5
 20
1110.833333
 30
0.0
 11
1269.5
 21
1119.166667
 31
0.0
 12
1294.5
 22
1115.0
 32
0.0
 13
1294.5
 23
1115.0
 33
0.0
  0
TEXT
  5
72
  8
DIMENSIONS
 10
1014.047619
 20
1140.0
 30
0.0
 40
25.0
  1
474%%C
  0
LINE
  5
73
  8
DIMENSIONS
 10
0.0
 20
1005.0
 30
0.0
 11
0.0
 21
1230.0
 31
0.0
  0
LINE
  5
74
  8
DIMENSIONS
 10
2115.0
 20
1005.0
 30
0.0
 11
2115.0
 21
1230.0
 31
0.0
  0
LINE
  5
75
  8
DIMENSIONS
 10
25.0
 20
1215.0
 30
0.0
 11
2090.0
 21
1215.0
 31
0.0
  0
SOLID
  5
76
  8
DIMENSIONS
 10
25.0
 20
1210.833333
 30
0.0
 11
25.0
 21
1219.166667
 31
0.0
 12
0.0
 22
1215.0
 32
0.0
 13
0.0
 23
1215.0
 33
0.0
  0
SOLID
  5
77
  8
DIMENSIONS
 10
2090.0
 20
1210.833333
 30
0.0
 11
2090.0
 21
1219.166667
 31
0.0
 12
2115.0
 22
1215.0
 32
0.0
 13
2115.0
 23
1215.0
 33
0.0
  0
TEXT
  5
78
  8
DIMENSIONS
 10
1018.214286
 20
1240.0
 30
0.0
 40
25.0
  1
2115
  0
LINE
  5
79
  8
DIMENSIONS
 10
-15.0
 20
390.0
 30
0.0
 11
-340.0
 21
390.0
 31
0.0
  0
TEXT
  5
7A
  8
STELTXT
 10
-570.359444
 20
608.269455
 30
0.0
 40
25.0
  1
CONNECTION
  0
TEXT
  5
7B
  8
STELTXT
 10
-570.359444
 20
648.269455
 30
0.0
 40
25.0
  1
2" BSP GAS
  0
LINE
  5
7C
  8
CENTER
 10
-24.5
 20
325.0
 30
0.0
 11
-154.5
 21
325.0
 31
0.0
  0
LINE
  5
7D
  8
DIMENSIONS
 10
2130.0
 20
990.0
 30
0.0
 11
2355.0
 21
990.0
 31
0.0
  0
LINE
  5
7E
  8
DIMENSIONS
 10
2340.0
 20
965.0
 30
0.0
 11
2340.0
 21
25.0
 31
0.0
  0
SOLID
  5
7F
  8
DIMENSIONS
 10
2344.166667
 20
965.0
 30
0.0
 11
2335.833333
 21
965.0
 31
0.0
 12
2340.0
 22
990.0
 32
0.0
 13
2340.0
 23
990.0
 33
0.0
  0
SOLID
  5
80
  8
DIMENSIONS
 10
2344.166667
 20
25.0
 30
0.0
 11
2335.833333
 21
25.0
 31
0.0
 12
2340.0
 22
0.0
 32
0.0
 13
2340.0
 23
0.0
 33
0.0
  0
TEXT
  5
81
  8
DIMENSIONS
 10
2315.0
 20
462.857143
 30
0.0
 40
25.0
  1
990
 50
90.0
  0
LINE
  5
82
  8
CENTER
 10
-83.75
 20
225.0
 30
0.0
 11
111.75
 21
225.0
 31
0.0
  0
LINE
  5
83
  8
DIMENSIONS
 10
-240.0
 20
390.0
 30
0.0
 11
-240.0
 21
390.0
 31
0.0
  0
LINE
  5
84
  8
DIMENSIONS
 10
-169.5
 20
325.0
 30
0.0
 11
-240.0
 21
325.0
 31
0.0
  0
LINE
  5
85
  8
DIMENSIONS
 10
-225.0
 20
365.0
 30
0.0
 11
-225.0
 21
350.0
 31
0.0
  0
SOLID
  5
86
  8
DIMENSIONS
 10
-220.833333
 20
365.0
 30
0.0
 11
-229.166667
 21
365.0
 31
0.0
 12
-225.0
 22
390.0
 32
0.0
 13
-225.0
 23
390.0
 33
0.0
  0
SOLID
  5
87
  8
DIMENSIONS
 10
-220.833333
 20
350.0
 30
0.0
 11
-229.166667
 21
350.0
 31
0.0
 12
-225.0
 22
325.0
 32
0.0
 13
-225.0
 23
325.0
 33
0.0
  0
TEXT
  5
88
  8
DIMENSIONS
 10
-250.0
 20
337.261905
 30
0.0
 40
25.0
  1
65
 50
90.0
  0
LINE
  5
89
  8
DIMENSIONS
 10
-310.0
 20
390.0
 30
0.0
 11
-310.0
 21
390.0
 31
0.0
  0
LINE
  5
8A
  8
DIMENSIONS
 10
-98.75
 20
225.0
 30
0.0
 11
-340.0
 21
225.0
 31
0.0
  0
LINE
  5
8B
  8
DIMENSIONS
 10
-325.0
 20
365.0
 30
0.0
 11
-325.0
 21
250.0
 31
0.0
  0
SOLID
  5
8C
  8
DIMENSIONS
 10
-320.833333
 20
365.0
 30
0.0
 11
-329.166667
 21
365.0
 31
0.0
 12
-325.0
 22
390.0
 32
0.0
 13
-325.0
 23
390.0
 33
0.0
  0
SOLID
  5
8D
  8
DIMENSIONS
 10
-320.833333
 20
250.0
 30
0.0
 11
-329.166667
 21
250.0
 31
0.0
 12
-325.0
 22
225.0
 32
0.0
 13
-325.0
 23
225.0
 33
0.0
  0
TEXT
  5
8E
  8
DIMENSIONS
 10
-350.0
 20
277.738095
 30
0.0
 40
25.0
  1
165
 50
90.0
  0
LINE
  5
8F
  8
DIMENSIONS
 10
2130.0
 20
390.0
 30
0.0
 11
2255.0
 21
390.0
 31
0.0
  0
LINE
  5
90
  8
DIMENSIONS
 10
2255.0
 20
990.0
 30
0.0
 11
2255.0
 21
990.0
 31
0.0
  0
LINE
  5
91
  8
DIMENSIONS
 10
2240.0
 20
415.0
 30
0.0
 11
2240.0
 21
965.0
 31
0.0
  0
SOLID
  5
92
  8
DIMENSIONS
 10
2244.166667
 20
415.0
 30
0.0
 11
2235.833333
 21
415.0
 31
0.0
 12
2240.0
 22
390.0
 32
0.0
 13
2240.0
 23
390.0
 33
0.0
  0
SOLID
  5
93
  8
DIMENSIONS
 10
2244.166667
 20
965.0
 30
0.0
 11
2235.833333
 21
965.0
 31
0.0
 12
2240.0
 22
990.0
 32
0.0
 13
2240.0
 23
990.0
 33
0.0
  0
TEXT
  5
94
  8
DIMENSIONS
 10
2215.0
 20
657.857143
 30
0.0
 40
25.0
  1
600
 50
90.0
  0
LINE
  5
95
  8
STELTXT
 10
-271.255624
 20
641.78986
 30
0.0
 11
-332.158732
 21
641.78986
 31
0.0
  0
TEXT
  5
96
  8
STELTXT
 10
2410.589562
 20
398.768807
 30
0.0
 40
25.0
  1
5" BSP FLOW
  0
TEXT
  5
97
  8
STELTXT
 10
2410.589562
 20
358.768807
 30
0.0
 40
25.0
  1
CONNECTION
  0
LINE
  5
98
  8
STELTXT
 10
2356.492022
 20
393.198356
 30
0.0
 11
2398.214498
 21
393.198356
 31
0.0
  0
LINE
  5
99
  8
DETAIL
 10
-112.4
 20
375.8
 30
0.0
 11
-112.4
 21
390.0
 31
0.0
  0
LINE
  5
9A
  8
DETAIL
 10
-61.6
 20
375.8
 30
0.0
 11
-61.6
 21
390.0
 31
0.0
  0
LINE
  5
9B
  8
DETAIL
 10
-112.4
 20
390.0
 30
0.0
 11
-61.6
 21
390.0
 31
0.0
  0
ARC
  5
9C
  8
DETAIL
 10
-36.2
 20
375.8
 30
0.0
 40
25.4
 50
180.0
 51
270.0
  0
ARC
  5
9D
  8
DETAIL
 10
-36.2
 20
375.8
 30
0.0
 40
76.2
 50
180.0
 51
270.0
  0
SOLID
  5
9E
  8
STELTXT
 10
-93.690274
 20
412.487743
 30
0.0
 11
-100.35169
 21
407.480749
 31
0.0
 12
-82.0
 22
390.0
 32
0.0
 13
-82.0
 23
390.0
 33
0.0
  0
LINE
  5
9F
  8
STELTXT
 10
-97.020982
 20
409.984246
 30
0.0
 11
-271.255624
 21
641.78986
 31
0.0
  0
TEXT
  5
A0
  8
STELTXT
 10
-552.359444
 20
76.466656
 30
0.0
 40
25.0
  1
5" BSP RETURN
  0
TEXT
  5
A1
  8
STELTXT
 10
-552.359444
 20
36.466656
 30
0.0
 40
25.0
  1
CONNECTION
  0
SOLID
  5
A2
  8
STELTXT
 10
-16.432042
 20
211.47119
 30
0.0
 11
-10.885831
 21
205.251544
 31
0.0
 12
5.0
 22
225.0
 32
0.0
 13
5.0
 23
225.0
 33
0.0
  0
LINE
  5
A3
  8
STELTXT
 10
-13.658936
 20
208.361367
 30
0.0
 11
-175.060596
 21
64.435531
 31
0.0
  0
LINE
  5
A4
  8
STELTXT
 10
-175.060596
 20
64.435531
 30
0.0
 11
-247.440035
 21
64.435531
 31
0.0
  0
LINE
  5
A5
  8
PLANNING
 10
-600.0
 20
-1000.0
 30
0.0
 11
-600.0
 21
1015.0
 31
0.0
  0
LINE
  5
A6
  8
PLANNING
 10
2715.0
 20
-1000.0
 30
0.0
 11
2715.0
 21
1015.0
 31
0.0
  0
LINE
  5
A7
  8
PLANNING
 10
-600.0
 20
-1000.0
 30
0.0
 11
2715.0
 21
-1000.0
 31
0.0
  0
LINE
  5
A8
  8
PLANNING
 10
-600.0
 20
1015.0
 30
0.0
 11
2715.0
 21
1015.0
 31
0.0
  0
SOLID
  5
A9
  8
STELTXT
 10
2128.097123
 20
235.43475
 30
0.0
 11
2123.464387
 21
242.361669
 31
0.0
 12
2105.0
 22
225.0
 32
0.0
 13
2105.0
 23
225.0
 33
0.0
  0
LINE
  5
AA
  8
STELTXT
 10
2125.780755
 20
238.898209
 30
0.0
 11
2356.492022
 21
393.198356
 31
0.0
  0
ATTDEF
  5
AB
  8
STELATT
 10
979.404762
 20
-1120.0
 30
0.0
 40
40.0
  1
IDEAL
 72
     4
 11
1057.5
 21
-1100.0
 31
0.0
  3

  2
MANUFACTURER
 70
     2
  0
ATTDEF
  5
AC
  8
STELATT
 10
870.833333
 20
-1190.0
 30
0.0
 40
40.0
  1
SUPER PLUS
 72
     4
 11
1057.5
 21
-1170.0
 31
0.0
  3

  2
TYPE
 70
     2
  0
ATTDEF
  5
AD
  8
STELATT
 10
967.02381
 20
-1257.142857
 30
0.0
 40
40.0
  1
600/6
 72
     4
 11
1057.5
 21
-1240.0
 31
0.0
  3

  2
MODEL
 70
     2
  0
ENDSEC
  0
EOF
