  0
SECTION
  2
HEADER
  9
$ACADVER
  1
AC1009
  9
$INSBASE
 10
0.0
 20
0.0
 30
0.0
  9
$EXTMIN
 10
-480.068817
 20
-1247.579952
 30
0.0
  9
$EXTMAX
 10
1247.181142
 20
1635.131987
 30
0.0
  9
$LIMMIN
 10
0.0
 20
0.0
  9
$LIMMAX
 10
12.0
 20
9.0
  9
$ORTHOMODE
 70
     1
  9
$REGENMODE
 70
     1
  9
$FILLMODE
 70
     1
  9
$QTEXTMODE
 70
     0
  9
$MIRRTEXT
 70
     0
  9
$DRAGMODE
 70
     2
  9
$LTSCALE
 40
50.0
  9
$OSMODE
 70
     0
  9
$ATTMODE
 70
     1
  9
$TEXTSIZE
 40
25.0
  9
$TRACEWID
 40
0.05
  9
$TEXTSTYLE
  7
STANDARD
  9
$CLAYER
  8
0
  9
$CELTYPE
  6
BYLAYER
  9
$CECOLOR
 62
   256
  9
$DIMSCALE
 40
1.0
  9
$DIMASZ
 40
25.0
  9
$DIMEXO
 40
20.0
  9
$DIMDLI
 40
0.38
  9
$DIMRND
 40
0.0
  9
$DIMDLE
 40
0.0
  9
$DIMEXE
 40
20.0
  9
$DIMTP
 40
0.0
  9
$DIMTM
 40
0.0
  9
$DIMTXT
 40
25.0
  9
$DIMCEN
 40
0.09
  9
$DIMTSZ
 40
0.0
  9
$DIMTOL
 70
     0
  9
$DIMLIM
 70
     0
  9
$DIMTIH
 70
     0
  9
$DIMTOH
 70
     0
  9
$DIMSE1
 70
     0
  9
$DIMSE2
 70
     0
  9
$DIMTAD
 70
     1
  9
$DIMZIN
 70
     0
  9
$DIMBLK
  1

  9
$DIMASO
 70
     1
  9
$DIMSHO
 70
     1
  9
$DIMPOST
  1

  9
$DIMAPOST
  1

  9
$DIMALT
 70
     0
  9
$DIMALTD
 70
     2
  9
$DIMALTF
 40
25.4
  9
$DIMLFAC
 40
1.0
  9
$DIMTOFL
 70
     0
  9
$DIMTVP
 40
0.0
  9
$DIMTIX
 70
     0
  9
$DIMSOXD
 70
     0
  9
$DIMSAH
 70
     0
  9
$DIMBLK1
  1

  9
$DIMBLK2
  1

  9
$DIMSTYLE
  2
STANDARD
  9
$DIMCLRD
 70
     0
  9
$DIMCLRE
 70
     0
  9
$DIMCLRT
 70
     0
  9
$DIMTFAC
 40
1.0
  9
$DIMGAP
 40
10.0
  9
$LUNITS
 70
     2
  9
$LUPREC
 70
     4
  9
$SKETCHINC
 40
0.1
  9
$FILLETRAD
 40
0.0
  9
$AUNITS
 70
     0
  9
$AUPREC
 70
     0
  9
$MENU
  1
.
  9
$ELEVATION
 40
0.0
  9
$PELEVATION
 40
0.0
  9
$THICKNESS
 40
0.0
  9
$LIMCHECK
 70
     0
  9
$BLIPMODE
 70
     0
  9
$CHAMFERA
 40
0.5
  9
$CHAMFERB
 40
0.5
  9
$SKPOLY
 70
     1
  9
$TDCREATE
 40
2451256.323024
  9
$TDUPDATE
 40
2453073.533729
  9
$TDINDWG
 40
0.153815
  9
$TDUSRTIMER
 40
0.153815
  9
$USRTIMER
 70
     1
  9
$ANGBASE
 50
0.0
  9
$ANGDIR
 70
     0
  9
$PDMODE
 70
     0
  9
$PDSIZE
 40
0.0
  9
$PLINEWID
 40
0.0
  9
$COORDS
 70
     1
  9
$SPLFRAME
 70
     0
  9
$SPLINETYPE
 70
     6
  9
$SPLINESEGS
 70
     8
  9
$ATTDIA
 70
     0
  9
$ATTREQ
 70
     1
  9
$HANDLING
 70
 22529
  9
$HANDSEED
  5
5A0
  9
$SURFTAB1
 70
     6
  9
$SURFTAB2
 70
     6
  9
$SURFTYPE
 70
     6
  9
$SURFU
 70
     6
  9
$SURFV
 70
     6
  9
$UCSNAME
  2

  9
$UCSORG
 10
0.0
 20
0.0
 30
0.0
  9
$UCSXDIR
 10
1.0
 20
0.0
 30
0.0
  9
$UCSYDIR
 10
0.0
 20
1.0
 30
0.0
  9
$PUCSNAME
  2

  9
$PUCSORG
 10
0.0
 20
0.0
 30
0.0
  9
$PUCSXDIR
 10
1.0
 20
0.0
 30
0.0
  9
$PUCSYDIR
 10
0.0
 20
1.0
 30
0.0
  9
$USERI1
 70
     0
  9
$USERI2
 70
     0
  9
$USERI3
 70
     0
  9
$USERI4
 70
     0
  9
$USERI5
 70
     0
  9
$USERR1
 40
0.0
  9
$USERR2
 40
0.0
  9
$USERR3
 40
0.0
  9
$USERR4
 40
0.0
  9
$USERR5
 40
0.0
  9
$WORLDVIEW
 70
     1
  9
$SHADEDGE
 70
     3
  9
$SHADEDIF
 70
    70
  9
$TILEMODE
 70
     1
  9
$MAXACTVP
 70
    48
  9
$PLIMCHECK
 70
     0
  9
$PEXTMIN
 10
1.000000E+020
 20
1.000000E+020
 30
1.000000E+020
  9
$PEXTMAX
 10
-1.000000E+020
 20
-1.000000E+020
 30
-1.000000E+020
  9
$PLIMMIN
 10
0.0
 20
0.0
  9
$PLIMMAX
 10
12.0
 20
9.0
  9
$UNITMODE
 70
     0
  9
$VISRETAIN
 70
     1
  9
$PLINEGEN
 70
     0
  9
$PSLTSCALE
 70
     1
  0
ENDSEC
  0
SECTION
  2
TABLES
  0
TABLE
  2
VPORT
 70
     2
  0
VPORT
  2
*ACTIVE
 70
     0
 10
0.0
 20
0.0
 11
1.0
 21
1.0
 12
383.556162
 22
193.776017
 13
0.0
 23
0.0
 14
0.5
 24
0.5
 15
0.5
 25
0.5
 16
0.0
 26
0.0
 36
1.0
 17
0.0
 27
0.0
 37
0.0
 40
2915.910158
 41
1.825
 42
50.0
 43
0.0
 44
0.0
 50
0.0
 51
0.0
 71
     0
 72
   100
 73
     1
 74
     0
 75
     0
 76
     0
 77
     0
 78
     0
  0
ENDTAB
  0
TABLE
  2
LTYPE
 70
     3
  0
LTYPE
  2
CONTINUOUS
 70
     0
  3
Solid line
 72
    65
 73
     0
 40
0.0
  0
LTYPE
  2
CENTER
 70
     0
  3
____ _ ____ _ ____ _ ____ _ ____ _ ____ _ ____
 72
    65
 73
     4
 40
2.0
 49
1.25
 49
-0.25
 49
0.25
 49
-0.25
  0
LTYPE
  2
DASHED
 70
     0
  3
Dashed __ __ __ __ __ __ __ __ __ __ __ __ __ _
 72
    65
 73
     2
 40
0.75
 49
0.5
 49
-0.25
  0
ENDTAB
  0
TABLE
  2
LAYER
 70
     9
  0
LAYER
  2
0
 70
     0
 62
     7
  6
CONTINUOUS
  0
LAYER
  2
DETAIL
 70
     0
 62
     2
  6
CONTINUOUS
  0
LAYER
  2
DIMENSIONS
 70
     0
 62
     7
  6
CONTINUOUS
  0
LAYER
  2
CENTER
 70
     0
 62
     4
  6
CENTER
  0
LAYER
  2
ORIGIN
 70
     0
 62
     6
  6
CONTINUOUS
  0
LAYER
  2
STELTXT
 70
     0
 62
     4
  6
CONTINUOUS
  0
LAYER
  2
STELATT
 70
     0
 62
     7
  6
CONTINUOUS
  0
LAYER
  2
PLANNING
 70
     0
 62
     1
  6
DASHED
  0
LAYER
  2
DEFPOINTS
 70
     0
 62
     7
  6
CONTINUOUS
  0
ENDTAB
  0
TABLE
  2
STYLE
 70
     1
  0
STYLE
  2
STANDARD
 70
     0
 40
0.0
 41
1.0
 50
0.0
 71
     0
 42
25.0
  3
simplex.shx
  4

  0
ENDTAB
  0
TABLE
  2
VIEW
 70
     0
  0
ENDTAB
  0
TABLE
  2
UCS
 70
     0
  0
ENDTAB
  0
TABLE
  2
APPID
 70
     1
  0
APPID
  2
ACAD
 70
     0
  0
ENDTAB
  0
TABLE
  2
DIMSTYLE
 70
     1
  0
DIMSTYLE
  2
STANDARD
 70
     0
  3

  4

  5

  6

  7

 40
1.0
 41
25.0
 42
20.0
 43
0.38
 44
20.0
 45
0.0
 46
0.0
 47
0.0
 48
0.0
140
25.0
141
0.09
142
0.0
143
25.4
144
1.0
145
0.0
146
1.0
147
10.0
 71
     0
 72
     0
 73
     0
 74
     0
 75
     0
 76
     0
 77
     1
 78
     0
170
     0
171
     2
172
     0
173
     0
174
     0
175
     0
176
     0
177
     0
178
     0
  0
ENDTAB
  0
ENDSEC
  0
SECTION
  2
BLOCKS
  0
BLOCK
  8
0
  2
$MODEL_SPACE
 70
     0
 10
0.0
 20
0.0
 30
0.0
  3
$MODEL_SPACE
  1

  0
ENDBLK
  5
6
  8
0
  0
BLOCK
 67
     1
  8
0
  2
$PAPER_SPACE
 70
     0
 10
0.0
 20
0.0
 30
0.0
  3
$PAPER_SPACE
  1

  0
ENDBLK
  5
9
 67
     1
  8
0
  0
ENDSEC
  0
SECTION
  2
ENTITIES
  0
POLYLINE
  8
STELTXT
  5
591
  66
     1
 10
0.000000
 20
0.000000
 30
0.000000
  70
     8
  0
VERTEX
  8
STELTXT
  5
592
 10
236.736
 20
1136.54
 30
0.000000
  70
    32
  0
VERTEX
  8
STELTXT
  5
593
 10
500.099
 20
1342.50
 30
0.000000
  70
    32
  0
VERTEX
  8
STELTXT
  5
594
 10
628.646
 20
1342.50
 30
0.000000
  70
    32
  0
SEQEND
  8
STELTXT
  5
595
  0
LINE
  5
22
  8
DIMENSIONS
  6
BYBLOCK
 62
     0
 10
45.0
 20
1323.417186
 30
0.0
 11
555.0
 21
1323.417186
 31
0.0
  0
LINE
  5
27
  8
DETAIL
 10
225.0
 20
-10.0
 30
0.0
 11
375.0
 21
-10.0
 31
0.0
  0
ATTDEF
  5
29
  8
STELATT
 10
234.757663
 20
-1177.448083
 30
0.0
 40
40.0
  1
FALCON GTE
 72
     4
 11
303.329092
 21
-1157.448083
 31
0.0
  3

  2
TYPE
 70
     2
  0
ATTDEF
  5
2B
  8
STELATT
 10
209.995759
 20
-1247.448083
 30
0.0
 40
40.0
  1
GTE 7
 72
     4
 11
303.329092
 21
-1227.448083
 31
0.0
  3

  2
MODEL
 70
     2
  0
LINE
  5
2D
  8
DETAIL
 10
61.720032
 20
1084.0
 30
0.0
 11
538.279968
 21
1084.0
 31
0.0
  0
LINE
  5
2E
  8
DETAIL
 10
20.0
 20
973.0
 30
0.0
 11
580.0
 21
973.0
 31
0.0
  0
LINE
  5
2F
  8
DETAIL
 10
104.121156
 20
0.0
 30
0.0
 11
495.878844
 21
0.0
 31
0.0
  0
LINE
  5
30
  8
DETAIL
 10
109.675186
 20
115.36806
 30
0.0
 11
490.324814
 21
115.36806
 31
0.0
  0
ATTDEF
  5
31
  8
STELATT
 10
69.995759
 20
-1107.448083
 30
0.0
 40
40.0
  1
IDEAL
 72
     4
 11
303.329092
 21
-1087.448083
 31
0.0
  3

  2
MANUFACTURER
 70
     2
  0
POLYLINE
  5
34
  8
ORIGIN
 66
     1
 10
0.0
 20
0.0
 30
0.0
  0
VERTEX
  5
586
  8
ORIGIN
 10
104.121156
 20
0.0
 30
0.0
  0
VERTEX
  5
587
  8
ORIGIN
 10
4.121156
 20
-100.0
 30
0.0
  0
VERTEX
  5
588
  8
ORIGIN
 10
4.121156
 20
100.0
 30
0.0
  0
VERTEX
  5
589
  8
ORIGIN
 10
204.121156
 20
-100.0
 30
0.0
  0
VERTEX
  5
58A
  8
ORIGIN
 10
204.121156
 20
100.0
 30
0.0
  0
VERTEX
  5
58B
  8
ORIGIN
 10
104.121156
 20
0.0
 30
0.0
  0
SEQEND
  5
58C
  8
ORIGIN
  0
SOLID
  5
4C
  8
DIMENSIONS
  6
BYBLOCK
 62
     0
 10
45.0
 20
1327.583852
 30
0.0
 11
45.0
 21
1319.250519
 31
0.0
 12
20.0
 22
1323.417186
 32
0.0
 13
20.0
 23
1323.417186
 33
0.0
  0
SOLID
  5
4D
  8
DIMENSIONS
  6
BYBLOCK
 62
     0
 10
45.0
 20
1242.839369
 30
0.0
 11
45.0
 21
1234.506036
 31
0.0
 12
20.0
 22
1238.672703
 32
0.0
 13
20.0
 23
1238.672703
 33
0.0
  0
LINE
  5
51
  8
DETAIL
 10
104.121156
 20
0.0
 30
0.0
 11
20.0
 21
104.775008
 31
0.0
  0
LINE
  5
54
  8
DIMENSIONS
  6
BYBLOCK
 62
     0
 10
20.0
 20
973.0
 30
0.0
 11
20.0
 21
1343.417186
 31
0.0
  0
LINE
  5
66
  8
DETAIL
 10
20.0
 20
973.0
 30
0.0
 11
20.0
 21
104.775008
 31
0.0
  0
LINE
  5
86
  8
CENTER
 10
225.0
 20
1157.36965
 30
0.0
 11
225.0
 21
1056.735563
 31
0.0
  0
LINE
  5
89
  8
DETAIL
 10
240.875
 20
1135.0
 30
0.0
 11
240.875
 21
1084.0
 31
0.0
  0
LINE
  5
8A
  8
DETAIL
 10
209.125
 20
1135.0
 30
0.0
 11
209.125
 21
1084.0
 31
0.0
  0
LINE
  5
8B
  8
DETAIL
 10
109.675186
 20
973.0
 30
0.0
 11
109.675186
 21
0.0
 31
0.0
  0
LINE
  5
8C
  8
DETAIL
 10
61.720032
 20
1084.0
 30
0.0
 11
61.720032
 21
973.0
 31
0.0
  0
LINE
  5
8F
  8
DETAIL
 10
225.0
 20
-10.0
 30
0.0
 11
225.0
 21
0.0
 31
0.0
  0
TEXT
  5
90
  8
DIMENSIONS
 62
     0
 10
90.357143
 20
1248.672703
 30
0.0
 40
25.0
  1
205
  0
LINE
  5
91
  8
DIMENSIONS
  6
BYBLOCK
 62
     0
 10
45.0
 20
1238.672703
 30
0.0
 11
200.0
 21
1238.672703
 31
0.0
  0
LINE
  5
9C
  8
DIMENSIONS
  6
BYBLOCK
 62
     0
 10
225.0
 20
1136.179477
 30
0.0
 11
225.0
 21
1258.672703
 31
0.0
  0
LINE
  5
9D
  8
DETAIL
 10
209.125
 20
1135.0
 30
0.0
 11
240.875
 21
1135.0
 31
0.0
  0
SOLID
  5
A1
  8
DIMENSIONS
  6
BYBLOCK
 62
     0
 10
200.0
 20
1115.839369
 30
0.0
 11
200.0
 21
1107.506036
 31
0.0
 12
225.0
 22
1111.672703
 32
0.0
 13
225.0
 23
1111.672703
 33
0.0
  0
SOLID
  5
A3
  8
DIMENSIONS
 10
657.425249
 20
-35.0
 30
0.0
 11
665.758582
 21
-35.0
 31
0.0
 12
661.591916
 22
-10.0
 32
0.0
 13
661.591916
 23
-10.0
 33
0.0
  0
LINE
  5
A9
  8
DIMENSIONS
 10
661.591916
 20
-35.0
 30
0.0
 11
661.591916
 21
-60.0
 31
0.0
  0
TEXT
  5
AB
  8
STELTXT
 10
636.440206
 20
880.724699
 30
0.0
 40
25.0
  1
 %%c3/4" TAPPED DRAINING TUBE
  0
TEXT
  5
AE
  8
STELTXT
 10
687.201176
 20
1344.706989
 30
0.0
 40
16.0
  1
1
  0
TEXT
  5
AF
  8
STELTXT
 10
686.051074
 20
1283.179001
 30
0.0
 40
16.0
  1
1
  0
TEXT
  5
B0
  8
STELTXT
 10
659.053593
 20
1189.323275
 30
0.0
 40
25.0
  1
%%C180 FLUE OUTLET
  0
TEXT
  5
B1
  8
STELTXT
 10
649.647766
 20
1274.002251
 30
0.0
 40
25.0
  1
%%c1 " HEATING RETURN
  0
TEXT
  5
B2
  8
STELTXT
 10
649.647766
 20
1335.530238
 30
0.0
 40
25.0
  1
%%C1 " HEATING OUTLET
  0
POLYLINE
  8
STELTXT
  5
596
  66
     1
 10
0.000000
 20
0.000000
 30
0.000000
  70
     8
  0
VERTEX
  8
STELTXT
  5
597
 10
304.484
 20
1088.73
 30
0.000000
  70
    32
  0
VERTEX
  8
STELTXT
  5
598
 10
614.238
 20
889.241
 30
0.000000
  70
    32
  0
VERTEX
  8
STELTXT
  5
599
 10
636.630
 20
889.241
 30
0.000000
  70
    32
  0
SEQEND
  8
STELTXT
  5
59A
  0
POLYLINE
  8
STELTXT
  5
59B
  66
     1
 10
0.000000
 20
0.000000
 30
0.000000
  70
     8
  0
VERTEX
  8
STELTXT
  5
59C
 10
415.629
 20
1117.34
 30
0.000000
  70
    32
  0
VERTEX
  8
STELTXT
  5
59D
 10
548.696
 20
1286.03
 30
0.000000
  70
    32
  0
VERTEX
  8
STELTXT
  5
59E
 10
636.484
 20
1286.03
 30
0.000000
  70
    32
  0
SEQEND
  8
STELTXT
  5
59F
  0
POLYLINE
  5
B6
  8
STELTXT
 66
     1
 10
0.0
 20
0.0
 30
0.0
 70
   128
1001
ACAD
1000
R13OBJECT
1002
{
1005
0
1002
}
  0
VERTEX
  5
58D
  8
STELTXT
 10
391.878758
 20
1138.745167
 30
0.0
  0
VERTEX
  5
58E
  8
STELTXT
 10
569.965843
 20
1201.324595
 30
0.0
  0
VERTEX
  5
58F
  8
STELTXT
 10
643.674571
 20
1201.324595
 30
0.0
  0
SEQEND
  5
590
  8
STELTXT
  0
LINE
  5
BB
  8
DIMENSIONS
  6
BYBLOCK
 62
     0
 10
555.0
 20
1238.672703
 30
0.0
 11
391.0
 21
1238.672703
 31
0.0
  0
LINE
  5
BC
  8
DIMENSIONS
  6
BYBLOCK
 62
     0
 10
440.0
 20
1174.719556
 30
0.0
 11
555.0
 21
1174.719556
 31
0.0
  0
TEXT
  5
BD
  8
DIMENSIONS
 62
     0
 10
467.738095
 20
1184.719556
 30
0.0
 40
25.0
  1
165
  0
TEXT
  5
BE
  8
DIMENSIONS
 62
     0
 10
442.642857
 20
1248.672703
 30
0.0
 40
25.0
  1
214
  0
LINE
  5
BF
  8
DIMENSIONS
 10
395.0
 20
-10.0
 30
0.0
 11
681.591916
 21
-10.0
 31
0.0
  0
LINE
  5
C0
  8
CENTER
 10
300.0
 20
1062.983839
 30
0.0
 11
300.0
 21
1147.962466
 31
0.0
  0
LINE
  5
C1
  8
CENTER
 10
366.0
 20
1148.588599
 30
0.0
 11
366.0
 21
1058.547572
 31
0.0
  0
LINE
  5
C2
  8
CENTER
 10
415.0
 20
1156.174968
 30
0.0
 11
415.0
 21
1055.540881
 31
0.0
  0
LINE
  5
C3
  8
DETAIL
  6
DASHED
 10
430.875
 20
1129.0
 30
0.0
 11
430.875
 21
1084.0
 31
0.0
  0
LINE
  5
C5
  8
DETAIL
  6
DASHED
 10
399.125
 20
1129.0
 30
0.0
 11
399.125
 21
1084.0
 31
0.0
  0
LINE
  5
C7
  8
DETAIL
 10
293.65
 20
1090.076989
 30
0.0
 11
306.35
 21
1090.076989
 31
0.0
  0
LINE
  5
C8
  8
DETAIL
 10
293.65
 20
1084.0
 30
0.0
 11
293.65
 21
1090.076989
 31
0.0
  0
LINE
  5
C9
  8
DETAIL
 10
306.35
 20
1084.0
 30
0.0
 11
306.35
 21
1090.076989
 31
0.0
  0
LINE
  5
CB
  8
DETAIL
 10
375.0
 20
-10.0
 30
0.0
 11
375.0
 21
0.0
 31
0.0
  0
LINE
  5
CC
  8
DETAIL
 10
276.0
 20
1129.0
 30
0.0
 11
456.0
 21
1129.0
 31
0.0
  0
TEXT
  5
D2
  8
DIMENSIONS
 62
     0
 10
267.857143
 20
1332.084168
 30
0.0
 40
25.0
  1
560
  0
LINE
  5
D3
  8
DIMENSIONS
  6
BYBLOCK
 62
     0
 10
366.0
 20
1103.355834
 30
0.0
 11
366.0
 21
1258.672703
 31
0.0
  0
LINE
  5
D4
  8
DIMENSIONS
  6
BYBLOCK
 62
     0
 10
415.0
 20
1126.471859
 30
0.0
 11
415.0
 21
1194.719556
 31
0.0
  0
LINE
  5
D5
  8
DETAIL
 10
399.125
 20
1135.0
 30
0.0
 11
430.875
 21
1135.0
 31
0.0
  0
SOLID
  5
D6
  8
STELTXT
  6
CONTINUOUS
 10
-393.260113
 20
1134.81414
 30
0.0
 11
-368.292598
 21
1130.45704
 31
0.0
 12
-390.497404
 22
1142.676194
 32
0.0
 13
-390.497404
 23
1142.676194
 33
0.0
210
0.0
220
0.0
230
-1.0
  0
LINE
  5
D8
  8
DETAIL
 10
399.125
 20
1135.0
 30
0.0
 11
399.125
 21
1129.0
 31
0.0
  0
LINE
  5
DA
  8
DETAIL
 10
430.875
 20
1135.0
 30
0.0
 11
430.875
 21
1129.0
 31
0.0
  0
SOLID
  5
DC
  8
DIMENSIONS
  6
BYBLOCK
 62
     0
 10
391.0
 20
1242.839369
 30
0.0
 11
391.0
 21
1234.506036
 31
0.0
 12
366.0
 22
1238.672703
 32
0.0
 13
366.0
 23
1238.672703
 33
0.0
  0
SOLID
  5
DE
  8
DIMENSIONS
  6
BYBLOCK
 62
     0
 10
440.0
 20
1178.886223
 30
0.0
 11
440.0
 21
1170.552889
 31
0.0
 12
415.0
 22
1174.719556
 32
0.0
 13
415.0
 23
1174.719556
 33
0.0
  0
LINE
  5
DF
  8
DIMENSIONS
  6
BYBLOCK
 62
     0
 10
580.0
 20
973.0
 30
0.0
 11
580.0
 21
1343.417186
 31
0.0
  0
LINE
  5
E3
  8
DIMENSIONS
 10
515.878844
 20
0.0
 30
0.0
 11
681.591916
 21
0.0
 31
0.0
  0
LINE
  5
E4
  8
DETAIL
 10
495.878844
 20
0.0
 30
0.0
 11
580.0
 21
104.775008
 31
0.0
  0
LINE
  5
E5
  8
DETAIL
 10
490.324814
 20
973.0
 30
0.0
 11
490.324814
 21
0.0
 31
0.0
  0
LINE
  5
E7
  8
DETAIL
 10
538.279968
 20
1084.0
 30
0.0
 11
538.279968
 21
973.0
 31
0.0
  0
LINE
  5
E8
  8
DETAIL
 10
580.0
 20
104.775008
 30
0.0
 11
580.0
 21
973.0
 31
0.0
  0
TEXT
  5
E9
  8
DIMENSIONS
 10
654.41299
 20
24.797694
 30
0.0
 40
25.0
  1
10
 50
90.0
  0
SOLID
  5
EB
  8
DIMENSIONS
 10
657.425249
 20
25.0
 30
0.0
 11
665.758582
 21
25.0
 31
0.0
 12
661.591916
 22
0.0
 32
0.0
 13
661.591916
 23
0.0
 33
0.0
  0
POINT
  5
EC
  8
DIMENSIONS
 10
661.591916
 20
-10.0
 30
0.0
  0
LINE
  5
ED
  8
DIMENSIONS
 10
661.591916
 20
0.0
 30
0.0
 11
661.591916
 21
-10.0
 31
0.0
  0
LINE
  5
EE
  8
DIMENSIONS
 10
661.591916
 20
25.0
 30
0.0
 11
661.591916
 21
50.0
 31
0.0
  0
SOLID
  5
F2
  8
DIMENSIONS
  6
BYBLOCK
 62
     0
 10
555.0
 20
1327.583852
 30
0.0
 11
555.0
 21
1319.250519
 31
0.0
 12
580.0
 22
1323.417186
 32
0.0
 13
580.0
 23
1323.417186
 33
0.0
  0
SOLID
  5
F3
  8
DIMENSIONS
  6
BYBLOCK
 62
     0
 10
555.0
 20
1242.839369
 30
0.0
 11
555.0
 21
1234.506036
 31
0.0
 12
580.0
 22
1238.672703
 32
0.0
 13
580.0
 23
1238.672703
 33
0.0
  0
SOLID
  5
F4
  8
DIMENSIONS
  6
BYBLOCK
 62
     0
 10
555.0
 20
1178.886223
 30
0.0
 11
555.0
 21
1170.552889
 31
0.0
 12
580.0
 22
1174.719556
 32
0.0
 13
580.0
 23
1174.719556
 33
0.0
  0
TEXT
  5
F7
  8
STELTXT
 10
690.926471
 20
1280.597983
 30
0.0
 40
16.0
  1
/
  0
TEXT
  5
F8
  8
STELTXT
 10
699.702178
 20
1274.119313
 30
0.0
 40
16.0
  1
2
  0
TEXT
  5
F9
  8
STELTXT
 10
700.85228
 20
1335.647301
 30
0.0
 40
16.0
  1
2
  0
TEXT
  5
FA
  8
STELTXT
 10
692.076573
 20
1342.125971
 30
0.0
 40
16.0
  1
/
  0
LINE
  5
18F
  8
PLANNING
 10
1080.0
 20
-1000.0
 30
0.0
 11
-480.0
 21
-1000.0
 31
0.0
  0
LINE
  5
190
  8
PLANNING
 10
1080.0
 20
1635.0
 30
0.0
 11
1080.0
 21
-1000.0
 31
0.0
  0
LINE
  5
191
  8
PLANNING
 10
-480.0
 20
1635.0
 30
0.0
 11
-480.0
 21
-1000.0
 31
0.0
  0
LINE
  5
2E7
  8
DETAIL
 10
276.0
 20
1129.0
 30
0.0
 11
276.0
 21
1084.0
 31
0.0
  0
LINE
  5
2E8
  8
DETAIL
 10
456.0
 20
1129.0
 30
0.0
 11
456.0
 21
1084.0
 31
0.0
  0
LINE
  5
3AF
  8
PLANNING
 10
-480.0
 20
1635.0
 30
0.0
 11
1080.0
 21
1635.0
 31
0.0
  0
LINE
  5
3D1
  8
DIMENSIONS
 10
84.121156
 20
0.0
 30
0.0
 11
-173.460526
 21
0.0
 31
0.0
  0
LINE
  5
3D2
  8
DIMENSIONS
 10
0.0
 20
973.0
 30
0.0
 11
-173.460526
 21
973.0
 31
0.0
  0
LINE
  5
3D3
  8
DIMENSIONS
 10
-153.460526
 20
25.0
 30
0.0
 11
-153.460526
 21
948.0
 31
0.0
  0
SOLID
  5
3D4
  8
DIMENSIONS
 10
-157.627193
 20
25.0
 30
0.0
 11
-149.293859
 21
25.0
 31
0.0
 12
-153.460526
 22
0.0
 32
0.0
 13
-153.460526
 23
0.0
 33
0.0
  0
SOLID
  5
3D5
  8
DIMENSIONS
 10
-157.627193
 20
948.0
 30
0.0
 11
-149.293859
 21
948.0
 31
0.0
 12
-153.460526
 22
973.0
 32
0.0
 13
-153.460526
 23
973.0
 33
0.0
  0
TEXT
  5
3D6
  8
0
 10
-163.460526
 20
454.357143
 30
0.0
 40
25.0
  1
973
 50
90.0
  0
LINE
  5
3D7
  8
DIMENSIONS
 10
84.121156
 20
0.0
 30
0.0
 11
-273.799169
 21
0.0
 31
0.0
  0
LINE
  5
3D8
  8
DIMENSIONS
 10
189.125
 20
1135.0
 30
0.0
 11
-273.799169
 21
1135.0
 31
0.0
  0
LINE
  5
3D9
  8
DIMENSIONS
 10
-253.799169
 20
25.0
 30
0.0
 11
-253.799169
 21
1110.0
 31
0.0
  0
SOLID
  5
3DA
  8
DIMENSIONS
 10
-257.965836
 20
25.0
 30
0.0
 11
-249.632502
 21
25.0
 31
0.0
 12
-253.799169
 22
0.0
 32
0.0
 13
-253.799169
 23
0.0
 33
0.0
  0
SOLID
  5
3DB
  8
DIMENSIONS
 10
-257.965836
 20
1110.0
 30
0.0
 11
-249.632502
 21
1110.0
 31
0.0
 12
-253.799169
 22
1135.0
 32
0.0
 13
-253.799169
 23
1135.0
 33
0.0
  0
TEXT
  5
3DC
  8
0
 10
-263.799169
 20
528.214286
 30
0.0
 40
25.0
  1
1135
 50
90.0
  0
LINE
  5
3F8
  8
DIMENSIONS
 10
41.720032
 20
1084.0
 30
0.0
 11
-63.919723
 21
1084.0
 31
0.0
  0
LINE
  5
3F9
  8
DIMENSIONS
 10
189.125
 20
1135.0
 30
0.0
 11
-63.919723
 21
1135.0
 31
0.0
  0
LINE
  5
3FA
  8
DIMENSIONS
 10
-43.919723
 20
1059.0
 30
0.0
 11
-43.919723
 21
1034.0
 31
0.0
  0
LINE
  5
3FB
  8
DIMENSIONS
 10
-43.919723
 20
1160.0
 30
0.0
 11
-43.919723
 21
1185.0
 31
0.0
  0
SOLID
  5
3FC
  8
DIMENSIONS
 10
-48.086389
 20
1059.0
 30
0.0
 11
-39.753056
 21
1059.0
 31
0.0
 12
-43.919723
 22
1084.0
 32
0.0
 13
-43.919723
 23
1084.0
 33
0.0
  0
SOLID
  5
3FD
  8
DIMENSIONS
 10
-48.086389
 20
1160.0
 30
0.0
 11
-39.753056
 21
1160.0
 31
0.0
 12
-43.919723
 22
1135.0
 32
0.0
 13
-43.919723
 23
1135.0
 33
0.0
  0
TEXT
  5
3FE
  8
0
 10
-53.919723
 20
1094.619048
 30
0.0
 40
25.0
  1
51
 50
90.0
  0
LINE
  5
3FF
  8
DIMENSIONS
 10
0.0
 20
973.0
 30
0.0
 11
-119.407452
 21
973.0
 31
0.0
  0
LINE
  5
400
  8
DIMENSIONS
 10
41.720032
 20
1084.0
 30
0.0
 11
-119.407452
 21
1084.0
 31
0.0
  0
LINE
  5
401
  8
DIMENSIONS
 10
-99.407452
 20
998.0
 30
0.0
 11
-99.407452
 21
1059.0
 31
0.0
  0
SOLID
  5
402
  8
DIMENSIONS
 10
-103.574119
 20
998.0
 30
0.0
 11
-95.240786
 21
998.0
 31
0.0
 12
-99.407452
 22
973.0
 32
0.0
 13
-99.407452
 23
973.0
 33
0.0
  0
SOLID
  5
403
  8
DIMENSIONS
 10
-103.574119
 20
1059.0
 30
0.0
 11
-95.240786
 21
1059.0
 31
0.0
 12
-99.407452
 22
1084.0
 32
0.0
 13
-99.407452
 23
1084.0
 33
0.0
  0
TEXT
  5
404
  8
0
 10
-109.407452
 20
1006.47619
 30
0.0
 40
25.0
  1
111
 50
90.0
  0
LINE
  5
413
  8
DIMENSIONS
 10
476.0
 20
1129.0
 30
0.0
 11
660.907387
 21
1129.0
 31
0.0
  0
LINE
  5
414
  8
DIMENSIONS
 10
558.279968
 20
1084.0
 30
0.0
 11
660.907387
 21
1084.0
 31
0.0
  0
LINE
  5
415
  8
DIMENSIONS
 10
640.907387
 20
1154.0
 30
0.0
 11
640.907387
 21
1179.0
 31
0.0
  0
LINE
  5
416
  8
DIMENSIONS
 10
640.907387
 20
1059.0
 30
0.0
 11
640.907387
 21
1016.261905
 31
0.0
  0
SOLID
  5
417
  8
DIMENSIONS
 10
636.740721
 20
1154.0
 30
0.0
 11
645.074054
 21
1154.0
 31
0.0
 12
640.907387
 22
1129.0
 32
0.0
 13
640.907387
 23
1129.0
 33
0.0
  0
SOLID
  5
418
  8
DIMENSIONS
 10
636.740721
 20
1059.0
 30
0.0
 11
645.074054
 21
1059.0
 31
0.0
 12
640.907387
 22
1084.0
 32
0.0
 13
640.907387
 23
1084.0
 33
0.0
  0
TEXT
  5
419
  8
0
 10
671.521568
 20
1127.610369
 30
0.0
 40
25.0
  1
45
 50
270.0
  0
ENDSEC
  0
EOF
