  0
SECTION
  2
HEADER
  9
$ACADVER
  1
AC1009
  9
$INSBASE
 10
0.0
 20
0.0
 30
0.0
  9
$EXTMIN
 10
-480.129175
 20
-1247.669863
 30
0.0
  9
$EXTMAX
 10
1247.238957
 20
1762.119669
 30
0.0
  9
$LIMMIN
 10
0.0
 20
0.0
  9
$LIMMAX
 10
12.0
 20
9.0
  9
$ORTHOMODE
 70
     1
  9
$REGENMODE
 70
     1
  9
$FILLMODE
 70
     1
  9
$QTEXTMODE
 70
     0
  9
$MIRRTEXT
 70
     0
  9
$DRAGMODE
 70
     2
  9
$LTSCALE
 40
50.0
  9
$OSMODE
 70
     0
  9
$ATTMODE
 70
     1
  9
$TEXTSIZE
 40
25.0
  9
$TRACEWID
 40
0.05
  9
$TEXTSTYLE
  7
STANDARD
  9
$CLAYER
  8
0
  9
$CELTYPE
  6
BYLAYER
  9
$CECOLOR
 62
   256
  9
$DIMSCALE
 40
1.0
  9
$DIMASZ
 40
25.0
  9
$DIMEXO
 40
20.0
  9
$DIMDLI
 40
0.38
  9
$DIMRND
 40
0.0
  9
$DIMDLE
 40
0.0
  9
$DIMEXE
 40
20.0
  9
$DIMTP
 40
0.0
  9
$DIMTM
 40
0.0
  9
$DIMTXT
 40
25.0
  9
$DIMCEN
 40
0.09
  9
$DIMTSZ
 40
0.0
  9
$DIMTOL
 70
     0
  9
$DIMLIM
 70
     0
  9
$DIMTIH
 70
     0
  9
$DIMTOH
 70
     0
  9
$DIMSE1
 70
     0
  9
$DIMSE2
 70
     0
  9
$DIMTAD
 70
     1
  9
$DIMZIN
 70
     0
  9
$DIMBLK
  1

  9
$DIMASO
 70
     1
  9
$DIMSHO
 70
     1
  9
$DIMPOST
  1

  9
$DIMAPOST
  1

  9
$DIMALT
 70
     0
  9
$DIMALTD
 70
     2
  9
$DIMALTF
 40
25.4
  9
$DIMLFAC
 40
1.0
  9
$DIMTOFL
 70
     0
  9
$DIMTVP
 40
0.0
  9
$DIMTIX
 70
     0
  9
$DIMSOXD
 70
     0
  9
$DIMSAH
 70
     0
  9
$DIMBLK1
  1

  9
$DIMBLK2
  1

  9
$DIMSTYLE
  2
STANDARD
  9
$DIMCLRD
 70
     0
  9
$DIMCLRE
 70
     0
  9
$DIMCLRT
 70
     0
  9
$DIMTFAC
 40
1.0
  9
$DIMGAP
 40
10.0
  9
$LUNITS
 70
     2
  9
$LUPREC
 70
     4
  9
$SKETCHINC
 40
0.1
  9
$FILLETRAD
 40
0.0
  9
$AUNITS
 70
     0
  9
$AUPREC
 70
     0
  9
$MENU
  1
.
  9
$ELEVATION
 40
0.0
  9
$PELEVATION
 40
0.0
  9
$THICKNESS
 40
0.0
  9
$LIMCHECK
 70
     0
  9
$BLIPMODE
 70
     0
  9
$CHAMFERA
 40
0.5
  9
$CHAMFERB
 40
0.5
  9
$SKPOLY
 70
     1
  9
$TDCREATE
 40
2451256.323024
  9
$TDUPDATE
 40
2453073.533746
  9
$TDINDWG
 40
0.15674
  9
$TDUSRTIMER
 40
0.15674
  9
$USRTIMER
 70
     1
  9
$ANGBASE
 50
0.0
  9
$ANGDIR
 70
     0
  9
$PDMODE
 70
     0
  9
$PDSIZE
 40
0.0
  9
$PLINEWID
 40
0.0
  9
$COORDS
 70
     1
  9
$SPLFRAME
 70
     0
  9
$SPLINETYPE
 70
     6
  9
$SPLINESEGS
 70
     8
  9
$ATTDIA
 70
     0
  9
$ATTREQ
 70
     1
  9
$HANDLING
 70
 22529
  9
$HANDSEED
  5
641
  9
$SURFTAB1
 70
     6
  9
$SURFTAB2
 70
     6
  9
$SURFTYPE
 70
     6
  9
$SURFU
 70
     6
  9
$SURFV
 70
     6
  9
$UCSNAME
  2

  9
$UCSORG
 10
0.0
 20
0.0
 30
0.0
  9
$UCSXDIR
 10
1.0
 20
0.0
 30
0.0
  9
$UCSYDIR
 10
0.0
 20
1.0
 30
0.0
  9
$PUCSNAME
  2

  9
$PUCSORG
 10
0.0
 20
0.0
 30
0.0
  9
$PUCSXDIR
 10
1.0
 20
0.0
 30
0.0
  9
$PUCSYDIR
 10
0.0
 20
1.0
 30
0.0
  9
$USERI1
 70
     0
  9
$USERI2
 70
     0
  9
$USERI3
 70
     0
  9
$USERI4
 70
     0
  9
$USERI5
 70
     0
  9
$USERR1
 40
0.0
  9
$USERR2
 40
0.0
  9
$USERR3
 40
0.0
  9
$USERR4
 40
0.0
  9
$USERR5
 40
0.0
  9
$WORLDVIEW
 70
     1
  9
$SHADEDGE
 70
     3
  9
$SHADEDIF
 70
    70
  9
$TILEMODE
 70
     1
  9
$MAXACTVP
 70
    48
  9
$PLIMCHECK
 70
     0
  9
$PEXTMIN
 10
1.000000E+020
 20
1.000000E+020
 30
1.000000E+020
  9
$PEXTMAX
 10
-1.000000E+020
 20
-1.000000E+020
 30
-1.000000E+020
  9
$PLIMMIN
 10
0.0
 20
0.0
  9
$PLIMMAX
 10
12.0
 20
9.0
  9
$UNITMODE
 70
     0
  9
$VISRETAIN
 70
     1
  9
$PLINEGEN
 70
     0
  9
$PSLTSCALE
 70
     1
  0
ENDSEC
  0
SECTION
  2
TABLES
  0
TABLE
  2
VPORT
 70
     2
  0
VPORT
  2
*ACTIVE
 70
     0
 10
0.0
 20
0.0
 11
1.0
 21
1.0
 12
383.554891
 22
257.224903
 13
0.0
 23
0.0
 14
0.5
 24
0.5
 15
0.5
 25
0.5
 16
0.0
 26
0.0
 36
1.0
 17
0.0
 27
0.0
 37
0.0
 40
3044.451216
 41
1.825
 42
50.0
 43
0.0
 44
0.0
 50
0.0
 51
0.0
 71
     0
 72
   100
 73
     1
 74
     0
 75
     0
 76
     0
 77
     0
 78
     0
  0
ENDTAB
  0
TABLE
  2
LTYPE
 70
     3
  0
LTYPE
  2
CONTINUOUS
 70
     0
  3
Solid line
 72
    65
 73
     0
 40
0.0
  0
LTYPE
  2
CENTER
 70
     0
  3
____ _ ____ _ ____ _ ____ _ ____ _ ____ _ ____
 72
    65
 73
     4
 40
2.0
 49
1.25
 49
-0.25
 49
0.25
 49
-0.25
  0
LTYPE
  2
DASHED
 70
     0
  3
Dashed __ __ __ __ __ __ __ __ __ __ __ __ __ _
 72
    65
 73
     2
 40
0.75
 49
0.5
 49
-0.25
  0
ENDTAB
  0
TABLE
  2
LAYER
 70
     9
  0
LAYER
  2
0
 70
     0
 62
     7
  6
CONTINUOUS
  0
LAYER
  2
DETAIL
 70
     0
 62
     2
  6
CONTINUOUS
  0
LAYER
  2
DIMENSIONS
 70
     0
 62
     7
  6
CONTINUOUS
  0
LAYER
  2
CENTER
 70
     0
 62
     4
  6
CENTER
  0
LAYER
  2
ORIGIN
 70
     0
 62
     6
  6
CONTINUOUS
  0
LAYER
  2
STELTXT
 70
     0
 62
     4
  6
CONTINUOUS
  0
LAYER
  2
STELATT
 70
     0
 62
     7
  6
CONTINUOUS
  0
LAYER
  2
PLANNING
 70
     0
 62
     1
  6
DASHED
  0
LAYER
  2
DEFPOINTS
 70
     0
 62
     7
  6
CONTINUOUS
  0
ENDTAB
  0
TABLE
  2
STYLE
 70
     1
  0
STYLE
  2
STANDARD
 70
     0
 40
0.0
 41
1.0
 50
0.0
 71
     0
 42
25.0
  3
simplex.shx
  4

  0
ENDTAB
  0
TABLE
  2
VIEW
 70
     0
  0
ENDTAB
  0
TABLE
  2
UCS
 70
     0
  0
ENDTAB
  0
TABLE
  2
APPID
 70
     1
  0
APPID
  2
ACAD
 70
     0
  0
ENDTAB
  0
TABLE
  2
DIMSTYLE
 70
     1
  0
DIMSTYLE
  2
STANDARD
 70
     0
  3

  4

  5

  6

  7

 40
1.0
 41
25.0
 42
20.0
 43
0.38
 44
20.0
 45
0.0
 46
0.0
 47
0.0
 48
0.0
140
25.0
141
0.09
142
0.0
143
25.4
144
1.0
145
0.0
146
1.0
147
10.0
 71
     0
 72
     0
 73
     0
 74
     0
 75
     0
 76
     0
 77
     1
 78
     0
170
     0
171
     2
172
     0
173
     0
174
     0
175
     0
176
     0
177
     0
178
     0
  0
ENDTAB
  0
ENDSEC
  0
SECTION
  2
BLOCKS
  0
BLOCK
  8
0
  2
$MODEL_SPACE
 70
     0
 10
0.0
 20
0.0
 30
0.0
  3
$MODEL_SPACE
  1

  0
ENDBLK
  5
6
  8
0
  0
BLOCK
 67
     1
  8
0
  2
$PAPER_SPACE
 70
     0
 10
0.0
 20
0.0
 30
0.0
  3
$PAPER_SPACE
  1

  0
ENDBLK
  5
9
 67
     1
  8
0
  0
ENDSEC
  0
SECTION
  2
ENTITIES
  0
POLYLINE
  8
STELTXT
  5
632
  66
     1
 10
0.000000
 20
0.000000
 30
0.000000
  70
     8
  0
VERTEX
  8
STELTXT
  5
633
 10
236.736
 20
1263.54
 30
0.000000
  70
    32
  0
VERTEX
  8
STELTXT
  5
634
 10
500.099
 20
1469.50
 30
0.000000
  70
    32
  0
VERTEX
  8
STELTXT
  5
635
 10
628.646
 20
1469.50
 30
0.000000
  70
    32
  0
SEQEND
  8
STELTXT
  5
636
  0
LINE
  5
22
  8
DIMENSIONS
  6
BYBLOCK
 62
     0
 10
45.0
 20
1450.417186
 30
0.0
 11
555.0
 21
1450.417186
 31
0.0
  0
LINE
  5
27
  8
DETAIL
 10
225.0
 20
-10.0
 30
0.0
 11
375.0
 21
-10.0
 31
0.0
  0
ATTDEF
  5
29
  8
STELATT
 10
234.757663
 20
-1177.448083
 30
0.0
 40
40.0
  1
FALCON GTE
 72
     4
 11
303.329092
 21
-1157.448083
 31
0.0
  3

  2
TYPE
 70
     2
  0
ATTDEF
  5
2B
  8
STELATT
 10
209.995759
 20
-1247.448083
 30
0.0
 40
40.0
  1
GTE 8
 72
     4
 11
303.329092
 21
-1227.448083
 31
0.0
  3

  2
MODEL
 70
     2
  0
LINE
  5
2D
  8
DETAIL
 10
61.720032
 20
1211.0
 30
0.0
 11
538.279968
 21
1211.0
 31
0.0
  0
LINE
  5
2E
  8
DETAIL
 10
20.0
 20
1100.0
 30
0.0
 11
580.0
 21
1100.0
 31
0.0
  0
LINE
  5
2F
  8
DETAIL
 10
104.121156
 20
0.0
 30
0.0
 11
495.878844
 21
0.0
 31
0.0
  0
LINE
  5
30
  8
DETAIL
 10
109.675186
 20
115.36806
 30
0.0
 11
490.324814
 21
115.36806
 31
0.0
  0
ATTDEF
  5
31
  8
STELATT
 10
69.995759
 20
-1107.448083
 30
0.0
 40
40.0
  1
IDEAL
 72
     4
 11
303.329092
 21
-1087.448083
 31
0.0
  3

  2
MANUFACTURER
 70
     2
  0
POLYLINE
  5
34
  8
ORIGIN
 66
     1
 10
0.0
 20
0.0
 30
0.0
  0
VERTEX
  5
627
  8
ORIGIN
 10
104.121156
 20
0.0
 30
0.0
  0
VERTEX
  5
628
  8
ORIGIN
 10
4.121156
 20
-100.0
 30
0.0
  0
VERTEX
  5
629
  8
ORIGIN
 10
4.121156
 20
100.0
 30
0.0
  0
VERTEX
  5
62A
  8
ORIGIN
 10
204.121156
 20
-100.0
 30
0.0
  0
VERTEX
  5
62B
  8
ORIGIN
 10
204.121156
 20
100.0
 30
0.0
  0
VERTEX
  5
62C
  8
ORIGIN
 10
104.121156
 20
0.0
 30
0.0
  0
SEQEND
  5
62D
  8
ORIGIN
  0
SOLID
  5
4C
  8
DIMENSIONS
  6
BYBLOCK
 62
     0
 10
45.0
 20
1454.583852
 30
0.0
 11
45.0
 21
1446.250519
 31
0.0
 12
20.0
 22
1450.417186
 32
0.0
 13
20.0
 23
1450.417186
 33
0.0
  0
SOLID
  5
4D
  8
DIMENSIONS
  6
BYBLOCK
 62
     0
 10
45.0
 20
1369.839369
 30
0.0
 11
45.0
 21
1361.506036
 31
0.0
 12
20.0
 22
1365.672703
 32
0.0
 13
20.0
 23
1365.672703
 33
0.0
  0
LINE
  5
51
  8
DETAIL
 10
104.121156
 20
0.0
 30
0.0
 11
20.0
 21
104.775008
 31
0.0
  0
LINE
  5
54
  8
DIMENSIONS
  6
BYBLOCK
 62
     0
 10
20.0
 20
1100.0
 30
0.0
 11
20.0
 21
1470.417186
 31
0.0
  0
LINE
  5
66
  8
DETAIL
 10
20.0
 20
1100.0
 30
0.0
 11
20.0
 21
104.775008
 31
0.0
  0
LINE
  5
86
  8
CENTER
 10
225.0
 20
1284.36965
 30
0.0
 11
225.0
 21
1183.735563
 31
0.0
  0
LINE
  5
89
  8
DETAIL
 10
240.875
 20
1262.0
 30
0.0
 11
240.875
 21
1211.0
 31
0.0
  0
LINE
  5
8A
  8
DETAIL
 10
209.125
 20
1262.0
 30
0.0
 11
209.125
 21
1211.0
 31
0.0
  0
LINE
  5
8B
  8
DETAIL
 10
109.675186
 20
1100.0
 30
0.0
 11
109.675186
 21
0.0
 31
0.0
  0
LINE
  5
8C
  8
DETAIL
 10
61.720032
 20
1211.0
 30
0.0
 11
61.720032
 21
1100.0
 31
0.0
  0
LINE
  5
8F
  8
DETAIL
 10
225.0
 20
-10.0
 30
0.0
 11
225.0
 21
0.0
 31
0.0
  0
TEXT
  5
90
  8
DIMENSIONS
 62
     0
 10
90.357143
 20
1375.672703
 30
0.0
 40
25.0
  1
205
  0
LINE
  5
91
  8
DIMENSIONS
  6
BYBLOCK
 62
     0
 10
45.0
 20
1365.672703
 30
0.0
 11
200.0
 21
1365.672703
 31
0.0
  0
LINE
  5
9C
  8
DIMENSIONS
  6
BYBLOCK
 62
     0
 10
225.0
 20
1263.179477
 30
0.0
 11
225.0
 21
1385.672703
 31
0.0
  0
LINE
  5
9D
  8
DETAIL
 10
209.125
 20
1262.0
 30
0.0
 11
240.875
 21
1262.0
 31
0.0
  0
SOLID
  5
A3
  8
DIMENSIONS
 10
657.425249
 20
-35.0
 30
0.0
 11
665.758582
 21
-35.0
 31
0.0
 12
661.591916
 22
-10.0
 32
0.0
 13
661.591916
 23
-10.0
 33
0.0
  0
LINE
  5
A9
  8
DIMENSIONS
 10
661.591916
 20
-35.0
 30
0.0
 11
661.591916
 21
-60.0
 31
0.0
  0
TEXT
  5
AB
  8
STELTXT
 10
636.440206
 20
1007.724699
 30
0.0
 40
25.0
  1
 %%c3/4" TAPPED DRAINING TUBE
  0
TEXT
  5
AE
  8
STELTXT
 10
687.201176
 20
1471.706989
 30
0.0
 40
16.0
  1
1
  0
TEXT
  5
AF
  8
STELTXT
 10
686.051074
 20
1410.179001
 30
0.0
 40
16.0
  1
1
  0
TEXT
  5
B0
  8
STELTXT
 10
659.053593
 20
1316.323275
 30
0.0
 40
25.0
  1
%%C180 FLUE OUTLET
  0
TEXT
  5
B1
  8
STELTXT
 10
649.647766
 20
1401.002251
 30
0.0
 40
25.0
  1
%%c1 " HEATING RETURN
  0
TEXT
  5
B2
  8
STELTXT
 10
649.647766
 20
1462.530238
 30
0.0
 40
25.0
  1
%%C1 " HEATING OUTLET
  0
POLYLINE
  8
STELTXT
  5
637
  66
     1
 10
0.000000
 20
0.000000
 30
0.000000
  70
     8
  0
VERTEX
  8
STELTXT
  5
638
 10
304.484
 20
1215.73
 30
0.000000
  70
    32
  0
VERTEX
  8
STELTXT
  5
639
 10
614.238
 20
1016.24
 30
0.000000
  70
    32
  0
VERTEX
  8
STELTXT
  5
63A
 10
636.630
 20
1016.24
 30
0.000000
  70
    32
  0
SEQEND
  8
STELTXT
  5
63B
  0
POLYLINE
  8
STELTXT
  5
63C
  66
     1
 10
0.000000
 20
0.000000
 30
0.000000
  70
     8
  0
VERTEX
  8
STELTXT
  5
63D
 10
415.629
 20
1244.34
 30
0.000000
  70
    32
  0
VERTEX
  8
STELTXT
  5
63E
 10
548.696
 20
1413.03
 30
0.000000
  70
    32
  0
VERTEX
  8
STELTXT
  5
63F
 10
636.484
 20
1413.03
 30
0.000000
  70
    32
  0
SEQEND
  8
STELTXT
  5
640
  0
POLYLINE
  5
B6
  8
STELTXT
 66
     1
 10
0.0
 20
0.0
 30
0.0
 70
   128
1001
ACAD
1000
R13OBJECT
1002
{
1005
0
1002
}
  0
VERTEX
  5
62E
  8
STELTXT
 10
391.878758
 20
1265.745167
 30
0.0
  0
VERTEX
  5
62F
  8
STELTXT
 10
569.965843
 20
1328.324595
 30
0.0
  0
VERTEX
  5
630
  8
STELTXT
 10
643.674571
 20
1328.324595
 30
0.0
  0
SEQEND
  5
631
  8
STELTXT
  0
LINE
  5
BB
  8
DIMENSIONS
  6
BYBLOCK
 62
     0
 10
555.0
 20
1365.672703
 30
0.0
 11
391.0
 21
1365.672703
 31
0.0
  0
LINE
  5
BC
  8
DIMENSIONS
  6
BYBLOCK
 62
     0
 10
440.0
 20
1301.719556
 30
0.0
 11
555.0
 21
1301.719556
 31
0.0
  0
TEXT
  5
BD
  8
DIMENSIONS
 62
     0
 10
467.738095
 20
1311.719556
 30
0.0
 40
25.0
  1
165
  0
TEXT
  5
BE
  8
DIMENSIONS
 62
     0
 10
442.642857
 20
1375.672703
 30
0.0
 40
25.0
  1
214
  0
LINE
  5
BF
  8
DIMENSIONS
 10
395.0
 20
-10.0
 30
0.0
 11
681.591916
 21
-10.0
 31
0.0
  0
LINE
  5
C0
  8
CENTER
 10
300.0
 20
1189.983839
 30
0.0
 11
300.0
 21
1274.962466
 31
0.0
  0
LINE
  5
C1
  8
CENTER
 10
366.0
 20
1275.588599
 30
0.0
 11
366.0
 21
1185.547572
 31
0.0
  0
LINE
  5
C2
  8
CENTER
 10
415.0
 20
1283.174968
 30
0.0
 11
415.0
 21
1182.540881
 31
0.0
  0
LINE
  5
C3
  8
DETAIL
  6
DASHED
 10
430.875
 20
1256.0
 30
0.0
 11
430.875
 21
1211.0
 31
0.0
  0
LINE
  5
C5
  8
DETAIL
  6
DASHED
 10
399.125
 20
1256.0
 30
0.0
 11
399.125
 21
1211.0
 31
0.0
  0
LINE
  5
C7
  8
DETAIL
 10
293.65
 20
1217.076989
 30
0.0
 11
306.35
 21
1217.076989
 31
0.0
  0
LINE
  5
C8
  8
DETAIL
 10
293.65
 20
1211.0
 30
0.0
 11
293.65
 21
1217.076989
 31
0.0
  0
LINE
  5
C9
  8
DETAIL
 10
306.35
 20
1211.0
 30
0.0
 11
306.35
 21
1217.076989
 31
0.0
  0
LINE
  5
CB
  8
DETAIL
 10
375.0
 20
-10.0
 30
0.0
 11
375.0
 21
0.0
 31
0.0
  0
LINE
  5
CC
  8
DETAIL
 10
276.0
 20
1256.0
 30
0.0
 11
456.0
 21
1256.0
 31
0.0
  0
TEXT
  5
D2
  8
DIMENSIONS
 62
     0
 10
267.857143
 20
1459.084168
 30
0.0
 40
25.0
  1
560
  0
LINE
  5
D3
  8
DIMENSIONS
  6
BYBLOCK
 62
     0
 10
366.0
 20
1230.355834
 30
0.0
 11
366.0
 21
1385.672703
 31
0.0
  0
LINE
  5
D4
  8
DIMENSIONS
  6
BYBLOCK
 62
     0
 10
415.0
 20
1253.471859
 30
0.0
 11
415.0
 21
1321.719556
 31
0.0
  0
LINE
  5
D5
  8
DETAIL
 10
399.125
 20
1262.0
 30
0.0
 11
430.875
 21
1262.0
 31
0.0
  0
SOLID
  5
D6
  8
STELTXT
  6
CONTINUOUS
 10
-393.260113
 20
1261.81414
 30
0.0
 11
-368.292598
 21
1257.45704
 31
0.0
 12
-390.497404
 22
1269.676194
 32
0.0
 13
-390.497404
 23
1269.676194
 33
0.0
210
0.0
220
0.0
230
-1.0
  0
LINE
  5
D8
  8
DETAIL
 10
399.125
 20
1262.0
 30
0.0
 11
399.125
 21
1256.0
 31
0.0
  0
LINE
  5
DA
  8
DETAIL
 10
430.875
 20
1262.0
 30
0.0
 11
430.875
 21
1256.0
 31
0.0
  0
SOLID
  5
DC
  8
DIMENSIONS
  6
BYBLOCK
 62
     0
 10
391.0
 20
1369.839369
 30
0.0
 11
391.0
 21
1361.506036
 31
0.0
 12
366.0
 22
1365.672703
 32
0.0
 13
366.0
 23
1365.672703
 33
0.0
  0
SOLID
  5
DE
  8
DIMENSIONS
  6
BYBLOCK
 62
     0
 10
440.0
 20
1305.886223
 30
0.0
 11
440.0
 21
1297.552889
 31
0.0
 12
415.0
 22
1301.719556
 32
0.0
 13
415.0
 23
1301.719556
 33
0.0
  0
LINE
  5
DF
  8
DIMENSIONS
  6
BYBLOCK
 62
     0
 10
580.0
 20
1100.0
 30
0.0
 11
580.0
 21
1470.417186
 31
0.0
  0
LINE
  5
E3
  8
DIMENSIONS
 10
515.878844
 20
0.0
 30
0.0
 11
681.591916
 21
0.0
 31
0.0
  0
LINE
  5
E4
  8
DETAIL
 10
495.878844
 20
0.0
 30
0.0
 11
580.0
 21
104.775008
 31
0.0
  0
LINE
  5
E5
  8
DETAIL
 10
490.324814
 20
1100.0
 30
0.0
 11
490.324814
 21
0.0
 31
0.0
  0
LINE
  5
E7
  8
DETAIL
 10
538.279968
 20
1211.0
 30
0.0
 11
538.279968
 21
1100.0
 31
0.0
  0
LINE
  5
E8
  8
DETAIL
 10
580.0
 20
104.775008
 30
0.0
 11
580.0
 21
1100.0
 31
0.0
  0
TEXT
  5
E9
  8
DIMENSIONS
 10
654.41299
 20
24.797694
 30
0.0
 40
25.0
  1
10
 50
90.0
  0
SOLID
  5
EB
  8
DIMENSIONS
 10
657.425249
 20
25.0
 30
0.0
 11
665.758582
 21
25.0
 31
0.0
 12
661.591916
 22
0.0
 32
0.0
 13
661.591916
 23
0.0
 33
0.0
  0
POINT
  5
EC
  8
DIMENSIONS
 10
661.591916
 20
-10.0
 30
0.0
  0
LINE
  5
ED
  8
DIMENSIONS
 10
661.591916
 20
0.0
 30
0.0
 11
661.591916
 21
-10.0
 31
0.0
  0
LINE
  5
EE
  8
DIMENSIONS
 10
661.591916
 20
25.0
 30
0.0
 11
661.591916
 21
50.0
 31
0.0
  0
SOLID
  5
F2
  8
DIMENSIONS
  6
BYBLOCK
 62
     0
 10
555.0
 20
1454.583852
 30
0.0
 11
555.0
 21
1446.250519
 31
0.0
 12
580.0
 22
1450.417186
 32
0.0
 13
580.0
 23
1450.417186
 33
0.0
  0
SOLID
  5
F3
  8
DIMENSIONS
  6
BYBLOCK
 62
     0
 10
555.0
 20
1369.839369
 30
0.0
 11
555.0
 21
1361.506036
 31
0.0
 12
580.0
 22
1365.672703
 32
0.0
 13
580.0
 23
1365.672703
 33
0.0
  0
SOLID
  5
F4
  8
DIMENSIONS
  6
BYBLOCK
 62
     0
 10
555.0
 20
1305.886223
 30
0.0
 11
555.0
 21
1297.552889
 31
0.0
 12
580.0
 22
1301.719556
 32
0.0
 13
580.0
 23
1301.719556
 33
0.0
  0
TEXT
  5
F7
  8
STELTXT
 10
690.926471
 20
1407.597983
 30
0.0
 40
16.0
  1
/
  0
TEXT
  5
F8
  8
STELTXT
 10
699.702178
 20
1401.119313
 30
0.0
 40
16.0
  1
2
  0
TEXT
  5
F9
  8
STELTXT
 10
700.85228
 20
1462.647301
 30
0.0
 40
16.0
  1
2
  0
TEXT
  5
FA
  8
STELTXT
 10
692.076573
 20
1469.125971
 30
0.0
 40
16.0
  1
/
  0
LINE
  5
18F
  8
PLANNING
 10
1080.0
 20
-1000.0
 30
0.0
 11
-480.0
 21
-1000.0
 31
0.0
  0
LINE
  5
190
  8
PLANNING
 10
1080.0
 20
1762.0
 30
0.0
 11
1080.0
 21
-1000.0
 31
0.0
  0
LINE
  5
191
  8
PLANNING
 10
-480.0
 20
1762.0
 30
0.0
 11
-480.0
 21
-1000.0
 31
0.0
  0
LINE
  5
2E7
  8
DETAIL
 10
276.0
 20
1256.0
 30
0.0
 11
276.0
 21
1211.0
 31
0.0
  0
LINE
  5
2E8
  8
DETAIL
 10
456.0
 20
1256.0
 30
0.0
 11
456.0
 21
1211.0
 31
0.0
  0
LINE
  5
3AF
  8
PLANNING
 10
-480.0
 20
1762.0
 30
0.0
 11
1080.0
 21
1762.0
 31
0.0
  0
LINE
  5
458
  8
DIMENSIONS
 10
84.121156
 20
0.0
 30
0.0
 11
-302.922265
 21
0.0
 31
0.0
  0
LINE
  5
459
  8
DIMENSIONS
 10
189.125
 20
1262.0
 30
0.0
 11
-302.922265
 21
1262.0
 31
0.0
  0
LINE
  5
45A
  8
DIMENSIONS
 10
-282.922265
 20
25.0
 30
0.0
 11
-282.922265
 21
1237.0
 31
0.0
  0
SOLID
  5
45B
  8
DIMENSIONS
 10
-287.088931
 20
25.0
 30
0.0
 11
-278.755598
 21
25.0
 31
0.0
 12
-282.922265
 22
0.0
 32
0.0
 13
-282.922265
 23
0.0
 33
0.0
  0
SOLID
  5
45C
  8
DIMENSIONS
 10
-287.088931
 20
1237.0
 30
0.0
 11
-278.755598
 21
1237.0
 31
0.0
 12
-282.922265
 22
1262.0
 32
0.0
 13
-282.922265
 23
1262.0
 33
0.0
  0
TEXT
  5
45D
  8
0
 10
-292.922265
 20
589.333333
 30
0.0
 40
25.0
  1
1262
 50
90.0
  0
LINE
  5
479
  8
DIMENSIONS
 10
84.121156
 20
0.0
 30
0.0
 11
-202.313357
 21
0.0
 31
0.0
  0
LINE
  5
47A
  8
DIMENSIONS
 10
0.0
 20
1100.0
 30
0.0
 11
-202.313357
 21
1100.0
 31
0.0
  0
LINE
  5
47B
  8
DIMENSIONS
 10
-182.313357
 20
25.0
 30
0.0
 11
-182.313357
 21
1075.0
 31
0.0
  0
SOLID
  5
47C
  8
DIMENSIONS
 10
-186.480024
 20
25.0
 30
0.0
 11
-178.14669
 21
25.0
 31
0.0
 12
-182.313357
 22
0.0
 32
0.0
 13
-182.313357
 23
0.0
 33
0.0
  0
SOLID
  5
47D
  8
DIMENSIONS
 10
-186.480024
 20
1075.0
 30
0.0
 11
-178.14669
 21
1075.0
 31
0.0
 12
-182.313357
 22
1100.0
 32
0.0
 13
-182.313357
 23
1100.0
 33
0.0
  0
TEXT
  5
47E
  8
0
 10
-192.313357
 20
510.714286
 30
0.0
 40
25.0
  1
1100
 50
90.0
  0
LINE
  5
48C
  8
DIMENSIONS
 10
0.0
 20
1100.0
 30
0.0
 11
-147.655794
 21
1100.0
 31
0.0
  0
LINE
  5
48D
  8
DIMENSIONS
 10
41.720032
 20
1211.0
 30
0.0
 11
-147.655794
 21
1211.0
 31
0.0
  0
LINE
  5
48E
  8
DIMENSIONS
 10
-127.655794
 20
1125.0
 30
0.0
 11
-127.655794
 21
1186.0
 31
0.0
  0
SOLID
  5
48F
  8
DIMENSIONS
 10
-131.822461
 20
1125.0
 30
0.0
 11
-123.489127
 21
1125.0
 31
0.0
 12
-127.655794
 22
1100.0
 32
0.0
 13
-127.655794
 23
1100.0
 33
0.0
  0
SOLID
  5
490
  8
DIMENSIONS
 10
-131.822461
 20
1186.0
 30
0.0
 11
-123.489127
 21
1186.0
 31
0.0
 12
-127.655794
 22
1211.0
 32
0.0
 13
-127.655794
 23
1211.0
 33
0.0
  0
TEXT
  5
491
  8
0
 10
-137.655794
 20
1133.47619
 30
0.0
 40
25.0
  1
111
 50
90.0
  0
LINE
  5
4A0
  8
DIMENSIONS
 10
41.720032
 20
1211.0
 30
0.0
 11
-66.260653
 21
1211.0
 31
0.0
  0
LINE
  5
4A1
  8
DIMENSIONS
 10
189.125
 20
1262.0
 30
0.0
 11
-66.260653
 21
1262.0
 31
0.0
  0
LINE
  5
4A2
  8
DIMENSIONS
 10
-46.260653
 20
1186.0
 30
0.0
 11
-46.260653
 21
1161.0
 31
0.0
  0
LINE
  5
4A3
  8
DIMENSIONS
 10
-46.260653
 20
1287.0
 30
0.0
 11
-46.260653
 21
1312.0
 31
0.0
  0
SOLID
  5
4A4
  8
DIMENSIONS
 10
-50.427319
 20
1186.0
 30
0.0
 11
-42.093986
 21
1186.0
 31
0.0
 12
-46.260653
 22
1211.0
 32
0.0
 13
-46.260653
 23
1211.0
 33
0.0
  0
SOLID
  5
4A5
  8
DIMENSIONS
 10
-50.427319
 20
1287.0
 30
0.0
 11
-42.093986
 21
1287.0
 31
0.0
 12
-46.260653
 22
1262.0
 32
0.0
 13
-46.260653
 23
1262.0
 33
0.0
  0
TEXT
  5
4A6
  8
0
 10
-56.260653
 20
1221.619048
 30
0.0
 40
25.0
  1
51
 50
90.0
  0
LINE
  5
4B5
  8
DIMENSIONS
 10
476.0
 20
1256.0
 30
0.0
 11
666.601118
 21
1256.0
 31
0.0
  0
LINE
  5
4B6
  8
DIMENSIONS
 10
558.279968
 20
1211.0
 30
0.0
 11
666.601118
 21
1211.0
 31
0.0
  0
LINE
  5
4B7
  8
DIMENSIONS
 10
646.601118
 20
1281.0
 30
0.0
 11
646.601118
 21
1306.0
 31
0.0
  0
LINE
  5
4B8
  8
DIMENSIONS
 10
646.601118
 20
1186.0
 30
0.0
 11
646.601118
 21
1143.261905
 31
0.0
  0
SOLID
  5
4B9
  8
DIMENSIONS
 10
642.434451
 20
1281.0
 30
0.0
 11
650.767784
 21
1281.0
 31
0.0
 12
646.601118
 22
1256.0
 32
0.0
 13
646.601118
 23
1256.0
 33
0.0
  0
SOLID
  5
4BA
  8
DIMENSIONS
 10
642.434451
 20
1186.0
 30
0.0
 11
650.767784
 21
1186.0
 31
0.0
 12
646.601118
 22
1211.0
 32
0.0
 13
646.601118
 23
1211.0
 33
0.0
  0
TEXT
  5
4BB
  8
0
 10
675.264144
 20
1251.423851
 30
0.0
 40
25.0
  1
45
 50
270.0
  0
ENDSEC
  0
EOF
