  0
SECTION
  2
HEADER
  9
$ACADVER
  1
AC1009
  9
$INSBASE
 10
-273.143258
 20
0.0
 30
0.0
  9
$EXTMIN
 10
-100.05461
 20
-482.010447
 30
0.0
  9
$EXTMAX
 10
795.054639
 20
1098.115962
 30
0.0
  9
$LIMMIN
 10
0.0
 20
0.0
  9
$LIMMAX
 10
420.0
 20
297.0
  9
$ORTHOMODE
 70
     1
  9
$REGENMODE
 70
     1
  9
$FILLMODE
 70
     1
  9
$QTEXTMODE
 70
     0
  9
$MIRRTEXT
 70
     0
  9
$DRAGMODE
 70
     2
  9
$LTSCALE
 40
25.0
  9
$OSMODE
 70
     0
  9
$ATTMODE
 70
     1
  9
$TEXTSIZE
 40
2.0
  9
$TRACEWID
 40
10.0
  9
$TEXTSTYLE
  7
STANDARD
  9
$CLAYER
  8
0
  9
$CELTYPE
  6
BYLAYER
  9
$CECOLOR
 62
   256
  9
$DIMSCALE
 40
1.0
  9
$DIMASZ
 40
25.0
  9
$DIMEXO
 40
15.0
  9
$DIMDLI
 40
10.0
  9
$DIMRND
 40
0.0
  9
$DIMDLE
 40
1.25
  9
$DIMEXE
 40
15.0
  9
$DIMTP
 40
0.0
  9
$DIMTM
 40
0.0
  9
$DIMTXT
 40
25.0
  9
$DIMCEN
 40
-3.0
  9
$DIMTSZ
 40
0.0
  9
$DIMTOL
 70
     0
  9
$DIMLIM
 70
     0
  9
$DIMTIH
 70
     0
  9
$DIMTOH
 70
     0
  9
$DIMSE1
 70
     0
  9
$DIMSE2
 70
     0
  9
$DIMTAD
 70
     0
  9
$DIMZIN
 70
     1
  9
$DIMBLK
  1

  9
$DIMASO
 70
     0
  9
$DIMSHO
 70
     0
  9
$DIMPOST
  1

  9
$DIMAPOST
  1

  9
$DIMALT
 70
     0
  9
$DIMALTD
 70
     2
  9
$DIMALTF
 40
0.039
  9
$DIMLFAC
 40
1.0
  9
$DIMTOFL
 70
     0
  9
$DIMTVP
 40
1.5
  9
$DIMTIX
 70
     0
  9
$DIMSOXD
 70
     0
  9
$DIMSAH
 70
     0
  9
$DIMBLK1
  1

  9
$DIMBLK2
  1

  9
$DIMSTYLE
  2
STANDARD
  9
$DIMCLRD
 70
     0
  9
$DIMCLRE
 70
     0
  9
$DIMCLRT
 70
     0
  9
$DIMTFAC
 40
1.0
  9
$DIMGAP
 40
0.09
  9
$LUNITS
 70
     2
  9
$LUPREC
 70
     2
  9
$SKETCHINC
 40
1.0
  9
$FILLETRAD
 40
0.0
  9
$AUNITS
 70
     0
  9
$AUPREC
 70
     4
  9
$MENU
  1
acad
  9
$ELEVATION
 40
0.0
  9
$PELEVATION
 40
0.0
  9
$THICKNESS
 40
0.0
  9
$LIMCHECK
 70
     0
  9
$BLIPMODE
 70
     0
  9
$CHAMFERA
 40
66.0
  9
$CHAMFERB
 40
66.0
  9
$SKPOLY
 70
     1
  9
$TDCREATE
 40
2450091.476543
  9
$TDUPDATE
 40
2453073.533763
  9
$TDINDWG
 40
0.078177
  9
$TDUSRTIMER
 40
0.078177
  9
$USRTIMER
 70
     1
  9
$ANGBASE
 50
0.0
  9
$ANGDIR
 70
     0
  9
$PDMODE
 70
     3
  9
$PDSIZE
 40
0.0
  9
$PLINEWID
 40
0.0
  9
$COORDS
 70
     1
  9
$SPLFRAME
 70
     0
  9
$SPLINETYPE
 70
     6
  9
$SPLINESEGS
 70
     6
  9
$ATTDIA
 70
     0
  9
$ATTREQ
 70
     1
  9
$HANDLING
 70
 22529
  9
$HANDSEED
  5
252
  9
$SURFTAB1
 70
    12
  9
$SURFTAB2
 70
    12
  9
$SURFTYPE
 70
     6
  9
$SURFU
 70
    12
  9
$SURFV
 70
    12
  9
$UCSNAME
  2

  9
$UCSORG
 10
0.0
 20
0.0
 30
0.0
  9
$UCSXDIR
 10
1.0
 20
0.0
 30
0.0
  9
$UCSYDIR
 10
0.0
 20
1.0
 30
0.0
  9
$PUCSNAME
  2

  9
$PUCSORG
 10
0.0
 20
0.0
 30
0.0
  9
$PUCSXDIR
 10
1.0
 20
0.0
 30
0.0
  9
$PUCSYDIR
 10
0.0
 20
1.0
 30
0.0
  9
$USERI1
 70
     0
  9
$USERI2
 70
     0
  9
$USERI3
 70
     0
  9
$USERI4
 70
     0
  9
$USERI5
 70
     0
  9
$USERR1
 40
0.0
  9
$USERR2
 40
0.0
  9
$USERR3
 40
0.0
  9
$USERR4
 40
0.0
  9
$USERR5
 40
0.0
  9
$WORLDVIEW
 70
     0
  9
$SHADEDGE
 70
     3
  9
$SHADEDIF
 70
    70
  9
$TILEMODE
 70
     1
  9
$MAXACTVP
 70
    16
  9
$PLIMCHECK
 70
     0
  9
$PEXTMIN
 10
1.000000E+020
 20
1.000000E+020
 30
1.000000E+020
  9
$PEXTMAX
 10
-1.000000E+020
 20
-1.000000E+020
 30
-1.000000E+020
  9
$PLIMMIN
 10
0.0
 20
0.0
  9
$PLIMMAX
 10
12.0
 20
9.0
  9
$UNITMODE
 70
     0
  9
$VISRETAIN
 70
     0
  9
$PLINEGEN
 70
     0
  9
$PSLTSCALE
 70
     0
  0
ENDSEC
  0
SECTION
  2
TABLES
  0
TABLE
  2
VPORT
 70
     2
  0
VPORT
  2
*ACTIVE
 70
     0
 10
0.0
 20
0.0
 11
1.0
 21
1.0
 12
347.500014
 22
308.052758
 13
0.0
 23
0.0
 14
10.0
 24
10.0
 15
0.0
 25
0.0
 16
0.0
 26
0.0
 36
1.0
 17
0.0
 27
0.0
 37
0.0
 40
1598.323642
 41
1.825
 42
50.0
 43
0.0
 44
0.0
 50
0.0
 51
0.0
 71
     0
 72
 20000
 73
     1
 74
     2
 75
     0
 76
     0
 77
     0
 78
     1
  0
ENDTAB
  0
TABLE
  2
LTYPE
 70
     3
  0
LTYPE
  2
CONTINUOUS
 70
     0
  3
Solid line
 72
    65
 73
     0
 40
0.0
  0
LTYPE
  2
DASHED
 70
     0
  3
__ __ __ __ __ __ __ __ __ __ __ __ __ __ __
 72
    65
 73
     2
 40
0.75
 49
0.5
 49
-0.25
  0
LTYPE
  2
CENTER
 70
     0
  3
____ _ ____ _ ____ _ ____ _ ____ _ ____ _ ____
 72
    65
 73
     4
 40
2.0
 49
1.25
 49
-0.25
 49
0.25
 49
-0.25
  0
ENDTAB
  0
TABLE
  2
LAYER
 70
     8
  0
LAYER
  2
0
 70
     0
 62
     7
  6
CONTINUOUS
  0
LAYER
  2
DETAIL
 70
     0
 62
     2
  6
CONTINUOUS
  0
LAYER
  2
DIMENSIONS
 70
     1
 62
     7
  6
CONTINUOUS
  0
LAYER
  2
PLANNING
 70
     1
 62
     1
  6
DASHED
  0
LAYER
  2
CENTER
 70
     1
 62
     4
  6
CENTER
  0
LAYER
  2
ORIGIN
 70
     0
 62
     6
  6
CONTINUOUS
  0
LAYER
  2
STELTXT
 70
     1
 62
     4
  6
CONTINUOUS
  0
LAYER
  2
STELATT
 70
     0
 62
     7
  6
CONTINUOUS
  0
ENDTAB
  0
TABLE
  2
STYLE
 70
     1
  0
STYLE
  2
STANDARD
 70
     0
 40
0.0
 41
1.0
 50
0.0
 71
     0
 42
2.0
  3
simplex
  4

  0
ENDTAB
  0
TABLE
  2
VIEW
 70
     0
  0
ENDTAB
  0
TABLE
  2
UCS
 70
     0
  0
ENDTAB
  0
TABLE
  2
APPID
 70
     1
  0
APPID
  2
ACAD
 70
     0
  0
ENDTAB
  0
TABLE
  2
DIMSTYLE
 70
     1
  0
DIMSTYLE
  2
STANDARD
 70
     0
  3

  4

  5

  6

  7

 40
1.0
 41
0.18
 42
0.0625
 43
0.38
 44
0.18
 45
0.0
 46
0.0
 47
0.0
 48
0.0
140
0.18
141
0.09
142
0.0
143
25.4
144
1.0
145
0.0
146
1.0
147
0.09
 71
     0
 72
     0
 73
     1
 74
     1
 75
     0
 76
     0
 77
     0
 78
     0
170
     0
171
     2
172
     0
173
     0
174
     0
175
     0
176
     0
177
     0
178
     0
  0
ENDTAB
  0
ENDSEC
  0
SECTION
  2
BLOCKS
  0
BLOCK
  8
0
  2
$MODEL_SPACE
 70
     0
 10
0.0
 20
0.0
 30
0.0
  3
$MODEL_SPACE
  1

  0
ENDBLK
  5
14F
  8
0
  0
BLOCK
 67
     1
  8
0
  2
$PAPER_SPACE
 70
     0
 10
0.0
 20
0.0
 30
0.0
  3
$PAPER_SPACE
  1

  0
ENDBLK
  5
14D
 67
     1
  8
0
  0
BLOCK
  8
0
  2
0ATRB
 70
     2
 10
0.0
 20
0.0
 30
0.0
  3
0ATRB
  1

  0
ATTDEF
  5
11B
  8
STELATT
 10
-15.351298
 20
-479.324227
 30
0.0
 40
40.0
  1
5
 72
     4
 11
-2.017965
 21
-459.324227
 31
0.0
  3

  2
MODEL
 70
     2
  0
ATTDEF
  5
11C
  8
STELATT
 10
-181.065584
 20
-409.324227
 30
0.0
 40
40.0
  1
HARRIER GT
 72
     4
 11
-2.017965
 21
-389.324227
 31
0.0
  3

  2
TYPE
 70
     2
  0
ATTDEF
  5
11D
  8
STELATT
 10
-80.113203
 20
-339.324227
 30
0.0
 40
40.0
  1
IDEAL
 72
     4
 11
-2.017965
 21
-319.324227
 31
0.0
  3

  2
MANUFACTURER
 70
     2
  0
ENDBLK
  5
11F
  8
0
  0
ENDSEC
  0
SECTION
  2
ENTITIES
  0
LINE
  5
2B
  8
PLANNING
 10
-500.0
 20
-1500.0
 30
0.0
 11
-500.0
 21
1968.0
 31
0.0
  0
LINE
  5
2C
  8
PLANNING
 10
1295.0
 20
1968.0
 30
0.0
 11
1295.0
 21
-1500.0
 31
0.0
  0
LINE
  5
2D
  8
PLANNING
 10
1295.0
 20
-1500.0
 30
0.0
 11
-500.0
 21
-1500.0
 31
0.0
  0
LINE
  5
2E
  8
DIMENSIONS
 10
770.0
 20
1439.931016
 30
0.0
 11
25.0
 21
1439.931016
 31
0.0
  0
POLYLINE
  5
2F
  8
DETAIL
 66
     1
 10
0.0
 20
0.0
 30
0.0
 70
     1
  0
VERTEX
  5
244
  8
DETAIL
 10
20.0
 20
115.0
 30
0.0
  0
VERTEX
  5
245
  8
DETAIL
 10
20.0
 20
470.0
 30
0.0
  0
VERTEX
  5
246
  8
DETAIL
 10
775.0
 20
470.0
 30
0.0
  0
VERTEX
  5
247
  8
DETAIL
 10
775.0
 20
115.0
 30
0.0
  0
SEQEND
  5
248
  8
DETAIL
  0
LINE
  5
35
  8
DETAIL
 10
795.0
 20
968.0
 30
0.0
 11
0.0
 21
968.0
 31
0.0
  0
LINE
  5
36
  8
DETAIL
 10
54.783293
 20
190.714984
 30
0.0
 11
740.216707
 21
190.714984
 31
0.0
  0
LINE
  5
37
  8
DETAIL
 10
772.0
 20
0.0
 30
0.0
 11
0.0
 21
0.0
 31
0.0
  0
LINE
  5
38
  8
DETAIL
 10
772.0
 20
32.0
 30
0.0
 11
23.0
 21
32.0
 31
0.0
  0
LINE
  5
39
  8
DETAIL
 10
23.0
 20
470.0
 30
0.0
 11
23.0
 21
968.0
 31
0.0
  0
LINE
  5
3A
  8
DIMENSIONS
 10
-236.201156
 20
943.0
 30
0.0
 11
-236.201156
 21
25.0
 31
0.0
  0
LINE
  5
3B
  8
DETAIL
 10
0.0
 20
53.249131
 30
0.0
 11
0.0
 21
968.0
 31
0.0
  0
LINE
  5
3C
  8
DETAIL
 10
54.783293
 20
115.0
 30
0.0
 11
54.783293
 21
470.0
 31
0.0
  0
LINE
  5
3D
  8
DIMENSIONS
 10
13.43743
 20
0.0
 30
0.0
 11
-251.201156
 21
0.0
 31
0.0
  0
SOLID
  5
3E
  8
DIMENSIONS
 10
-240.367823
 20
25.0
 30
0.0
 11
-232.03449
 21
25.0
 31
0.0
 12
-236.201156
 22
0.0
 32
0.0
 13
-236.201156
 23
0.0
 33
0.0
  0
LINE
  5
3F
  8
DETAIL
 10
23.0
 20
0.0
 30
0.0
 11
23.0
 21
115.0
 31
0.0
  0
LINE
  5
40
  8
DETAIL
 10
23.0
 20
53.249131
 30
0.0
 11
0.0
 21
53.249131
 31
0.0
  0
TEXT
  5
41
  8
DIMENSIONS
 10
-261.201156
 20
451.857143
 30
0.0
 40
25.0
  1
968
 50
90.0
 72
     1
 11
-273.701156
 21
484.0
 31
0.0
 73
     2
  0
LINE
  5
42
  8
DIMENSIONS
 10
0.0
 20
983.0
 30
0.0
 11
0.0
 21
1454.931016
 31
0.0
  0
LINE
  5
43
  8
DIMENSIONS
 10
-9.693366
 20
968.0
 30
0.0
 11
-251.201156
 21
968.0
 31
0.0
  0
SOLID
  5
44
  8
DIMENSIONS
 10
-240.367823
 20
943.0
 30
0.0
 11
-232.03449
 21
943.0
 31
0.0
 12
-236.201156
 22
968.0
 32
0.0
 13
-236.201156
 23
968.0
 33
0.0
  0
SOLID
  5
45
  8
DIMENSIONS
 10
25.0
 20
1444.097682
 30
0.0
 11
25.0
 21
1435.764349
 31
0.0
 12
0.0
 22
1439.931016
 32
0.0
 13
0.0
 23
1439.931016
 33
0.0
  0
LINE
  5
46
  8
DETAIL
 10
772.0
 20
968.0
 30
0.0
 11
772.0
 21
470.0
 31
0.0
  0
LINE
  5
47
  8
DETAIL
 10
795.0
 20
968.0
 30
0.0
 11
795.0
 21
53.249131
 31
0.0
  0
LINE
  5
48
  8
DETAIL
 10
795.0
 20
53.249131
 30
0.0
 11
772.0
 21
53.249131
 31
0.0
  0
LINE
  5
49
  8
DETAIL
 10
740.216707
 20
115.0
 30
0.0
 11
740.216707
 21
470.0
 31
0.0
  0
LINE
  5
4A
  8
DETAIL
 10
772.0
 20
115.0
 30
0.0
 11
772.0
 21
0.0
 31
0.0
  0
SOLID
  5
4B
  8
DIMENSIONS
 10
770.0
 20
1444.097682
 30
0.0
 11
770.0
 21
1435.764349
 31
0.0
 12
795.0
 22
1439.931016
 32
0.0
 13
795.0
 23
1439.931016
 33
0.0
  0
TEXT
  5
4C
  8
DIMENSIONS
 10
365.357143
 20
1464.931016
 30
0.0
 40
25.0
  1
795
 72
     1
 11
397.5
 21
1477.431016
 31
0.0
 73
     2
  0
LINE
  5
4D
  8
DIMENSIONS
 10
795.0
 20
983.0
 30
0.0
 11
795.0
 21
1454.931016
 31
0.0
  0
LINE
  5
4E
  8
PLANNING
 10
1295.0
 20
1968.0
 30
0.0
 11
-500.0
 21
1968.0
 31
0.0
  0
POLYLINE
  5
4F
  8
ORIGIN
 66
     1
 10
0.0
 20
0.0
 30
0.0
  0
VERTEX
  5
249
  8
ORIGIN
 10
0.0
 20
0.0
 30
0.0
  0
VERTEX
  5
24A
  8
ORIGIN
 10
-100.0
 20
-100.0
 30
0.0
  0
VERTEX
  5
24B
  8
ORIGIN
 10
-100.0
 20
100.0
 30
0.0
  0
VERTEX
  5
24C
  8
ORIGIN
 10
100.0
 20
-100.0
 30
0.0
  0
VERTEX
  5
24D
  8
ORIGIN
 10
100.0
 20
100.0
 30
0.0
  0
VERTEX
  5
24E
  8
ORIGIN
 10
0.0
 20
0.0
 30
0.0
  0
SEQEND
  5
24F
  8
ORIGIN
  0
LINE
  5
57
  8
CENTER
 10
397.5
 20
743.619858
 30
0.0
 11
397.5
 21
1254.113127
 31
0.0
  0
LINE
  5
58
  8
DETAIL
 10
372.1
 20
968.0
 30
0.0
 11
372.1
 21
1098.0
 31
0.0
  0
LINE
  5
59
  8
DETAIL
 10
422.9
 20
968.0
 30
0.0
 11
422.9
 21
1098.0
 31
0.0
  0
LINE
  5
5A
  8
DETAIL
 10
307.5
 20
968.0
 30
0.0
 11
307.5
 21
1098.0
 31
0.0
  0
LINE
  5
5B
  8
DETAIL
 10
487.5
 20
968.0
 30
0.0
 11
487.5
 21
1098.0
 31
0.0
  0
LINE
  5
5C
  8
DETAIL
 10
487.5
 20
1098.0
 30
0.0
 11
307.5
 21
1098.0
 31
0.0
  0
LINE
  5
5D
  8
CENTER
 10
397.5
 20
1269.113127
 30
0.0
 11
397.5
 21
1352.456068
 31
0.0
  0
LINE
  5
5E
  8
DIMENSIONS
 10
770.0
 20
1337.456068
 30
0.0
 11
422.5
 21
1337.456068
 31
0.0
  0
SOLID
  5
5F
  8
DIMENSIONS
 10
770.0
 20
1341.622735
 30
0.0
 11
770.0
 21
1333.289401
 31
0.0
 12
795.0
 22
1337.456068
 32
0.0
 13
795.0
 23
1337.456068
 33
0.0
  0
SOLID
  5
60
  8
DIMENSIONS
 10
422.5
 20
1341.622735
 30
0.0
 11
422.5
 21
1333.289401
 31
0.0
 12
397.5
 22
1337.456068
 32
0.0
 13
397.5
 23
1337.456068
 33
0.0
  0
TEXT
  5
61
  8
DIMENSIONS
 10
585.535714
 20
1362.456068
 30
0.0
 40
25.0
  1
=
 72
     1
 11
596.25
 21
1374.956068
 31
0.0
 73
     2
  0
LINE
  5
62
  8
DIMENSIONS
 10
25.0
 20
1337.456068
 30
0.0
 11
372.5
 21
1337.456068
 31
0.0
  0
SOLID
  5
63
  8
DIMENSIONS
 10
372.5
 20
1341.622735
 30
0.0
 11
372.5
 21
1333.289401
 31
0.0
 12
397.5
 22
1337.456068
 32
0.0
 13
397.5
 23
1337.456068
 33
0.0
  0
TEXT
  5
64
  8
DIMENSIONS
 10
188.035714
 20
1362.456068
 30
0.0
 40
25.0
  1
=
 72
     1
 11
198.75
 21
1374.956068
 31
0.0
 73
     2
  0
SOLID
  5
65
  8
DIMENSIONS
 10
25.0
 20
1341.622735
 30
0.0
 11
25.0
 21
1333.289401
 31
0.0
 12
0.0
 22
1337.456068
 32
0.0
 13
0.0
 23
1337.456068
 33
0.0
  0
CIRCLE
  5
66
  8
ORIGIN
 10
381.5
 20
-10.0
 30
0.0
 40
50.0
  0
LINE
  5
67
  8
STELTXT
 10
448.835477
 20
18.753297
 30
0.0
 11
816.483461
 21
65.185567
 31
0.0
  0
SOLID
  5
68
  8
STELTXT
 10
449.326057
 20
14.615612
 30
0.0
 11
448.344896
 21
22.890983
 31
0.0
 12
424.009363
 22
15.809812
 32
0.0
 13
424.009363
 23
15.809812
 33
0.0
  0
LINE
  5
69
  8
CENTER
 10
381.5
 20
-103.041326
 30
0.0
 11
381.5
 21
83.041326
 31
0.0
  0
TEXT
  5
6A
  8
STELTXT
 10
908.845973
 20
52.929124
 30
0.0
 40
25.0
  1
BURNER PLATE
  0
LINE
  5
6B
  8
STELTXT
 10
816.483461
 20
65.185567
 30
0.0
 11
882.661477
 21
65.185567
 31
0.0
  0
TEXT
  5
6C
  8
STELTXT
 10
908.249046
 20
1051.586142
 30
0.0
 40
25.0
  1
FLUE OUTLET %%C180mm
  0
LINE
  5
6D
  8
STELTXT
 10
521.04675
 20
1024.107758
 30
0.0
 11
873.050456
 21
1064.358782
 31
0.0
  0
LINE
  5
6E
  8
STELTXT
 10
873.050456
 20
1064.358782
 30
0.0
 11
882.661477
 21
1064.358782
 31
0.0
  0
SOLID
  5
6F
  8
STELTXT
 10
521.471847
 20
1019.962832
 30
0.0
 11
520.621654
 21
1028.252683
 31
0.0
 12
496.1772
 22
1021.557178
 32
0.0
 13
496.1772
 23
1021.557178
 33
0.0
  0
LINE
  5
70
  8
DETAIL
 10
526.801796
 20
-10.0
 30
0.0
 11
236.198204
 21
-10.0
 31
0.0
  0
LINE
  5
71
  8
DETAIL
 10
526.801796
 20
0.0
 30
0.0
 11
526.801796
 21
-10.0
 31
0.0
  0
LINE
  5
72
  8
DETAIL
 10
236.198204
 20
0.0
 30
0.0
 11
236.198204
 21
-10.0
 31
0.0
  0
TEXT
  5
73
  8
STELTXT
 10
909.877685
 20
1245.124869
 30
0.0
 40
25.0
  1
%%C2" WATER RETURN
  0
TEXT
  5
74
  8
STELTXT
 10
909.877685
 20
1169.069345
 30
0.0
 40
25.0
  1
 
  0
TEXT
  5
75
  8
STELTXT
 10
909.877685
 20
1205.124869
 30
0.0
 40
25.0
  1
TAPPING (THREADED)
  0
TEXT
  5
76
  8
STELTXT
 10
912.089057
 20
1394.065622
 30
0.0
 40
25.0
  1
%%C2" WATER FLOW
  0
TEXT
  5
77
  8
STELTXT
 10
912.089057
 20
1354.065622
 30
0.0
 40
25.0
  1
TAPPING (THREADED)
  0
TEXT
  5
78
  8
STELTXT
 10
912.089057
 20
1318.010097
 30
0.0
 40
25.0
  1
 
  0
SOLID
  5
79
  8
STELTXT
 10
441.190447
 20
1092.332543
 30
0.0
 11
437.379596
 21
1099.743472
 31
0.0
 12
417.052235
 22
1084.605457
 32
0.0
 13
417.052235
 23
1084.605457
 33
0.0
  0
LINE
  5
7A
  8
STELTXT
 10
439.285021
 20
1096.038008
 30
0.0
 11
865.569454
 21
1315.242129
 31
0.0
  0
LINE
  5
7B
  8
STELTXT
 10
865.569454
 20
1315.242129
 30
0.0
 11
882.661477
 21
1315.242129
 31
0.0
  0
TEXT
  5
7C
  8
STELTXT
 10
912.089057
 20
1296.579168
 30
0.0
 40
25.0
  1
ALSO
  0
LINE
  5
7F
  8
DIMENSIONS
  6
CONTINUOUS
 10
292.5
 20
1098.0
 30
0.0
 11
-251.146628
 21
1098.0
 31
0.0
  0
LINE
  5
81
  8
DIMENSIONS
  6
CONTINUOUS
 10
-236.146628
 20
1073.0
 30
0.0
 11
-236.146628
 21
993.0
 31
0.0
  0
SOLID
  5
82
  8
DIMENSIONS
  6
CONTINUOUS
 10
-240.313295
 20
1073.0
 30
0.0
 11
-231.979962
 21
1073.0
 31
0.0
 12
-236.146628
 22
1098.0
 32
0.0
 13
-236.146628
 23
1098.0
 33
0.0
  0
SOLID
  5
83
  8
DIMENSIONS
  6
CONTINUOUS
 10
-240.313295
 20
993.0
 30
0.0
 11
-231.979962
 21
993.0
 31
0.0
 12
-236.146628
 22
968.0
 32
0.0
 13
-236.146628
 23
968.0
 33
0.0
  0
TEXT
  5
84
  8
DIMENSIONS
  6
CONTINUOUS
 10
-261.146628
 20
1005.738095
 30
0.0
 40
25.0
  1
130
 50
90.0
  0
TEXT
  5
85
  8
STELTXT
 10
908.249046
 20
397.584641
 30
0.0
 40
25.0
  1
DELUXE CONTROL PANEL (Optional)
  0
SOLID
  5
86
  8
STELTXT
 10
449.326057
 20
358.663798
 30
0.0
 11
448.344896
 21
366.939169
 31
0.0
 12
424.009363
 22
359.857998
 32
0.0
 13
424.009363
 23
359.857998
 33
0.0
  0
LINE
  5
87
  8
STELTXT
 10
448.835477
 20
362.801483
 30
0.0
 11
816.483461
 21
409.233753
 31
0.0
  0
LINE
  5
88
  8
STELTXT
 10
816.483461
 20
409.233753
 30
0.0
 11
882.661477
 21
409.233753
 31
0.0
  0
LINE
  5
89
  8
DIMENSIONS
  6
CONTINUOUS
 10
5.0
 20
470.0
 30
0.0
 11
-99.598021
 21
470.0
 31
0.0
  0
LINE
  5
8A
  8
DIMENSIONS
  6
CONTINUOUS
 10
5.0
 20
115.0
 30
0.0
 11
-99.598021
 21
115.0
 31
0.0
  0
LINE
  5
8B
  8
DIMENSIONS
  6
CONTINUOUS
 10
-84.598021
 20
445.0
 30
0.0
 11
-84.598021
 21
140.0
 31
0.0
  0
SOLID
  5
8C
  8
DIMENSIONS
  6
CONTINUOUS
 10
-88.764687
 20
445.0
 30
0.0
 11
-80.431354
 21
445.0
 31
0.0
 12
-84.598021
 22
470.0
 32
0.0
 13
-84.598021
 23
470.0
 33
0.0
  0
SOLID
  5
8D
  8
DIMENSIONS
  6
CONTINUOUS
 10
-88.764687
 20
140.0
 30
0.0
 11
-80.431354
 21
140.0
 31
0.0
 12
-84.598021
 22
115.0
 32
0.0
 13
-84.598021
 23
115.0
 33
0.0
  0
TEXT
  5
8E
  8
DIMENSIONS
  6
CONTINUOUS
 10
-109.598021
 20
260.357143
 30
0.0
 40
25.0
  1
355
 50
90.0
  0
LINE
  5
8F
  8
DIMENSIONS
  6
CONTINUOUS
 10
20.0
 20
100.0
 30
0.0
 11
20.0
 21
-251.904517
 31
0.0
  0
LINE
  5
90
  8
DIMENSIONS
  6
CONTINUOUS
 10
775.0
 20
100.0
 30
0.0
 11
775.0
 21
-251.904517
 31
0.0
  0
LINE
  5
91
  8
DIMENSIONS
  6
CONTINUOUS
 10
45.0
 20
-236.904517
 30
0.0
 11
750.0
 21
-236.904517
 31
0.0
  0
SOLID
  5
92
  8
DIMENSIONS
  6
CONTINUOUS
 10
45.0
 20
-232.73785
 30
0.0
 11
45.0
 21
-241.071184
 31
0.0
 12
20.0
 22
-236.904517
 32
0.0
 13
20.0
 23
-236.904517
 33
0.0
  0
SOLID
  5
93
  8
DIMENSIONS
  6
CONTINUOUS
 10
750.0
 20
-232.73785
 30
0.0
 11
750.0
 21
-241.071184
 31
0.0
 12
775.0
 22
-236.904517
 32
0.0
 13
775.0
 23
-236.904517
 33
0.0
  0
TEXT
  5
94
  8
DIMENSIONS
  6
CONTINUOUS
 10
365.357143
 20
-211.904517
 30
0.0
 40
25.0
  1
755
  0
ATTDEF
  5
122
  8
STELATT
 10
308.307612
 20
-481.944162
 30
0.0
 40
40.0
  1
5
 72
     4
 11
401.640946
 21
-461.944162
 31
0.0
  3

  2
MODEL
 70
     2
  0
ATTDEF
  5
123
  8
STELATT
 10
333.069517
 20
-411.944162
 30
0.0
 40
40.0
  1
HARRIER GT
 72
     4
 11
401.640946
 21
-391.944162
 31
0.0
  3

  2
TYPE
 70
     2
  0
ATTDEF
  5
124
  8
STELATT
 10
168.307612
 20
-341.944162
 30
0.0
 40
40.0
  1
IDEAL
 72
     4
 11
401.640946
 21
-321.944162
 31
0.0
  3

  2
MANUFACTURER
 70
     2
  0
ENDSEC
  0
EOF
