  0
SECTION
  2
HEADER
  9
$ACADVER
  1
AC1009
  9
$INSBASE
 10
0.0
 20
0.0
 30
0.0
  9
$EXTMIN
 10
-100.05461
 20
-444.435664
 30
0.0
  9
$EXTMAX
 10
795.054639
 20
1382.111495
 30
0.0
  9
$LIMMIN
 10
0.0
 20
0.0
  9
$LIMMAX
 10
420.0
 20
297.0
  9
$ORTHOMODE
 70
     0
  9
$REGENMODE
 70
     1
  9
$FILLMODE
 70
     1
  9
$QTEXTMODE
 70
     0
  9
$MIRRTEXT
 70
     0
  9
$DRAGMODE
 70
     2
  9
$LTSCALE
 40
25.0
  9
$OSMODE
 70
     0
  9
$ATTMODE
 70
     1
  9
$TEXTSIZE
 40
2.0
  9
$TRACEWID
 40
10.0
  9
$TEXTSTYLE
  7
STANDARD
  9
$CLAYER
  8
0
  9
$CELTYPE
  6
BYLAYER
  9
$CECOLOR
 62
   256
  9
$DIMSCALE
 40
1.0
  9
$DIMASZ
 40
25.0
  9
$DIMEXO
 40
15.0
  9
$DIMDLI
 40
10.0
  9
$DIMRND
 40
0.0
  9
$DIMDLE
 40
1.25
  9
$DIMEXE
 40
15.0
  9
$DIMTP
 40
0.0
  9
$DIMTM
 40
0.0
  9
$DIMTXT
 40
25.0
  9
$DIMCEN
 40
-3.0
  9
$DIMTSZ
 40
0.0
  9
$DIMTOL
 70
     0
  9
$DIMLIM
 70
     0
  9
$DIMTIH
 70
     0
  9
$DIMTOH
 70
     0
  9
$DIMSE1
 70
     0
  9
$DIMSE2
 70
     0
  9
$DIMTAD
 70
     0
  9
$DIMZIN
 70
     1
  9
$DIMBLK
  1

  9
$DIMASO
 70
     0
  9
$DIMSHO
 70
     0
  9
$DIMPOST
  1

  9
$DIMAPOST
  1

  9
$DIMALT
 70
     0
  9
$DIMALTD
 70
     2
  9
$DIMALTF
 40
0.039
  9
$DIMLFAC
 40
1.0
  9
$DIMTOFL
 70
     0
  9
$DIMTVP
 40
1.5
  9
$DIMTIX
 70
     0
  9
$DIMSOXD
 70
     0
  9
$DIMSAH
 70
     0
  9
$DIMBLK1
  1

  9
$DIMBLK2
  1

  9
$DIMSTYLE
  2
STANDARD
  9
$DIMCLRD
 70
     0
  9
$DIMCLRE
 70
     0
  9
$DIMCLRT
 70
     0
  9
$DIMTFAC
 40
1.0
  9
$DIMGAP
 40
0.09
  9
$LUNITS
 70
     2
  9
$LUPREC
 70
     2
  9
$SKETCHINC
 40
1.0
  9
$FILLETRAD
 40
0.0
  9
$AUNITS
 70
     0
  9
$AUPREC
 70
     4
  9
$MENU
  1
acad
  9
$ELEVATION
 40
0.0
  9
$PELEVATION
 40
0.0
  9
$THICKNESS
 40
0.0
  9
$LIMCHECK
 70
     0
  9
$BLIPMODE
 70
     0
  9
$CHAMFERA
 40
66.0
  9
$CHAMFERB
 40
66.0
  9
$SKPOLY
 70
     1
  9
$TDCREATE
 40
2450088.431662
  9
$TDUPDATE
 40
2453073.533801
  9
$TDINDWG
 40
0.371946
  9
$TDUSRTIMER
 40
0.371946
  9
$USRTIMER
 70
     1
  9
$ANGBASE
 50
0.0
  9
$ANGDIR
 70
     0
  9
$PDMODE
 70
     4
  9
$PDSIZE
 40
0.0
  9
$PLINEWID
 40
0.0
  9
$COORDS
 70
     1
  9
$SPLFRAME
 70
     0
  9
$SPLINETYPE
 70
     6
  9
$SPLINESEGS
 70
     6
  9
$ATTDIA
 70
     0
  9
$ATTREQ
 70
     1
  9
$HANDLING
 70
 22529
  9
$HANDSEED
  5
458
  9
$SURFTAB1
 70
    12
  9
$SURFTAB2
 70
    12
  9
$SURFTYPE
 70
     6
  9
$SURFU
 70
    12
  9
$SURFV
 70
    12
  9
$UCSNAME
  2

  9
$UCSORG
 10
0.0
 20
0.0
 30
0.0
  9
$UCSXDIR
 10
1.0
 20
0.0
 30
0.0
  9
$UCSYDIR
 10
0.0
 20
1.0
 30
0.0
  9
$PUCSNAME
  2

  9
$PUCSORG
 10
0.0
 20
0.0
 30
0.0
  9
$PUCSXDIR
 10
1.0
 20
0.0
 30
0.0
  9
$PUCSYDIR
 10
0.0
 20
1.0
 30
0.0
  9
$USERI1
 70
     0
  9
$USERI2
 70
     0
  9
$USERI3
 70
     0
  9
$USERI4
 70
     0
  9
$USERI5
 70
     0
  9
$USERR1
 40
0.0
  9
$USERR2
 40
0.0
  9
$USERR3
 40
0.0
  9
$USERR4
 40
0.0
  9
$USERR5
 40
0.0
  9
$WORLDVIEW
 70
     0
  9
$SHADEDGE
 70
     3
  9
$SHADEDIF
 70
    70
  9
$TILEMODE
 70
     1
  9
$MAXACTVP
 70
    16
  9
$PLIMCHECK
 70
     0
  9
$PEXTMIN
 10
1.000000E+020
 20
1.000000E+020
 30
1.000000E+020
  9
$PEXTMAX
 10
-1.000000E+020
 20
-1.000000E+020
 30
-1.000000E+020
  9
$PLIMMIN
 10
0.0
 20
0.0
  9
$PLIMMAX
 10
12.0
 20
9.0
  9
$UNITMODE
 70
     0
  9
$VISRETAIN
 70
     0
  9
$PLINEGEN
 70
     0
  9
$PSLTSCALE
 70
     0
  0
ENDSEC
  0
SECTION
  2
TABLES
  0
TABLE
  2
VPORT
 70
     2
  0
VPORT
  2
*ACTIVE
 70
     0
 10
0.0
 20
0.0
 11
1.0
 21
1.0
 12
347.500014
 22
468.837915
 13
0.0
 23
0.0
 14
10.0
 24
10.0
 15
0.0
 25
0.0
 16
0.0
 26
0.0
 36
1.0
 17
0.0
 27
0.0
 37
0.0
 40
1847.582251
 41
1.825
 42
50.0
 43
0.0
 44
0.0
 50
0.0
 51
0.0
 71
     0
 72
 20000
 73
     1
 74
     2
 75
     0
 76
     0
 77
     0
 78
     1
  0
ENDTAB
  0
TABLE
  2
LTYPE
 70
     3
  0
LTYPE
  2
CONTINUOUS
 70
     0
  3
Solid line
 72
    65
 73
     0
 40
0.0
  0
LTYPE
  2
CENTER
 70
     0
  3
____ _ ____ _ ____ _ ____ _ ____ _ ____ _ ____
 72
    65
 73
     4
 40
2.0
 49
1.25
 49
-0.25
 49
0.25
 49
-0.25
  0
LTYPE
  2
DASHED
 70
     0
  3
__ __ __ __ __ __ __ __ __ __ __ __ __ __ __
 72
    65
 73
     2
 40
0.75
 49
0.5
 49
-0.25
  0
ENDTAB
  0
TABLE
  2
LAYER
 70
     8
  0
LAYER
  2
0
 70
     0
 62
     7
  6
CONTINUOUS
  0
LAYER
  2
DETAIL
 70
     0
 62
     2
  6
CONTINUOUS
  0
LAYER
  2
DIMENSIONS
 70
     1
 62
     7
  6
CONTINUOUS
  0
LAYER
  2
CENTER
 70
     1
 62
     4
  6
CENTER
  0
LAYER
  2
ORIGIN
 70
     0
 62
     6
  6
CONTINUOUS
  0
LAYER
  2
PLANNING
 70
     1
 62
     1
  6
DASHED
  0
LAYER
  2
STELTXT
 70
     1
 62
     4
  6
CONTINUOUS
  0
LAYER
  2
STELATT
 70
     0
 62
     7
  6
CONTINUOUS
  0
ENDTAB
  0
TABLE
  2
STYLE
 70
     1
  0
STYLE
  2
STANDARD
 70
     0
 40
0.0
 41
1.0
 50
0.0
 71
     0
 42
2.0
  3
simplex
  4

  0
ENDTAB
  0
TABLE
  2
VIEW
 70
     0
  0
ENDTAB
  0
TABLE
  2
UCS
 70
     0
  0
ENDTAB
  0
TABLE
  2
APPID
 70
     1
  0
APPID
  2
ACAD
 70
     0
  0
ENDTAB
  0
TABLE
  2
DIMSTYLE
 70
     1
  0
DIMSTYLE
  2
STANDARD
 70
     0
  3

  4

  5

  6

  7

 40
1.0
 41
0.18
 42
0.0625
 43
0.38
 44
0.18
 45
0.0
 46
0.0
 47
0.0
 48
0.0
140
0.18
141
0.09
142
0.0
143
25.4
144
1.0
145
0.0
146
1.0
147
0.09
 71
     0
 72
     0
 73
     1
 74
     1
 75
     0
 76
     0
 77
     0
 78
     0
170
     0
171
     2
172
     0
173
     0
174
     0
175
     0
176
     0
177
     0
178
     0
  0
ENDTAB
  0
ENDSEC
  0
SECTION
  2
BLOCKS
  0
BLOCK
  8
0
  2
$MODEL_SPACE
 70
     0
 10
0.0
 20
0.0
 30
0.0
  3
$MODEL_SPACE
  1

  0
ENDBLK
  5
300
  8
0
  0
BLOCK
 67
     1
  8
0
  2
$PAPER_SPACE
 70
     0
 10
0.0
 20
0.0
 30
0.0
  3
$PAPER_SPACE
  1

  0
ENDBLK
  5
2FE
 67
     1
  8
0
  0
ENDSEC
  0
SECTION
  2
ENTITIES
  0
LINE
  5
11A
  8
DETAIL
 10
731.216707
 20
1235.000049
 30
0.0
 11
63.783293
 21
1235.000049
 31
0.0
  0
LINE
  5
11B
  8
DETAIL
 10
63.783293
 20
1335.141719
 30
0.0
 11
731.216707
 21
1335.141719
 31
0.0
  0
LINE
  5
11C
  8
DETAIL
 10
63.783293
 20
1366.461315
 30
0.0
 11
731.216707
 21
1366.461315
 31
0.0
  0
LINE
  5
11D
  8
DETAIL
 10
731.216707
 20
1203.680453
 30
0.0
 11
63.783293
 21
1203.680453
 31
0.0
  0
LINE
  5
11E
  8
DETAIL
 10
29.0
 20
1382.0
 30
0.0
 11
766.0
 21
1382.0
 31
0.0
  0
LINE
  5
11F
  8
DETAIL
 10
63.783293
 20
1188.0
 30
0.0
 11
63.783293
 21
1382.0
 31
0.0
  0
LINE
  5
120
  8
DETAIL
 10
29.0
 20
1232.010152
 30
0.0
 11
29.0
 21
1382.0
 31
0.0
  0
LINE
  5
121
  8
DETAIL
 10
29.0
 20
1245.089504
 30
0.0
 11
63.783293
 21
1245.089504
 31
0.0
  0
LINE
  5
122
  8
DETAIL
 10
29.0
 20
1232.010152
 30
0.0
 11
63.783293
 21
1203.680453
 31
0.0
  0
POLYLINE
  5
123
  8
DETAIL
 66
     1
 10
0.0
 20
0.0
 30
0.0
 70
     1
  0
VERTEX
  5
43B
  8
DETAIL
 10
281.166334
 20
1256.215452
 30
0.0
  0
VERTEX
  5
43C
  8
DETAIL
 10
281.166334
 20
1275.159889
 30
0.0
  0
VERTEX
  5
43D
  8
DETAIL
 10
338.145908
 20
1275.159889
 30
0.0
  0
VERTEX
  5
43E
  8
DETAIL
 10
338.145908
 20
1256.215452
 30
0.0
  0
SEQEND
  5
43F
  8
DETAIL
  0
CIRCLE
  5
129
  8
DETAIL
 10
234.444052
 20
1264.196446
 30
0.0
 40
7.0
  0
CIRCLE
  5
12A
  8
DETAIL
 10
234.444052
 20
1307.982036
 30
0.0
 40
7.0
  0
CIRCLE
  5
12B
  8
DETAIL
 10
404.104499
 20
1267.564615
 30
0.0
 40
20.0
  0
CIRCLE
  5
12C
  8
DETAIL
 10
404.104499
 20
1307.982036
 30
0.0
 40
7.0
  0
POLYLINE
  5
12D
  8
DETAIL
 66
     1
 10
0.0
 20
0.0
 30
0.0
 70
     1
  0
VERTEX
  5
440
  8
DETAIL
 10
683.738277
 20
1249.365956
 30
0.0
  0
VERTEX
  5
441
  8
DETAIL
 10
683.738277
 20
1267.746573
 30
0.0
  0
VERTEX
  5
442
  8
DETAIL
 10
705.196799
 20
1267.746573
 30
0.0
  0
VERTEX
  5
443
  8
DETAIL
 10
705.196799
 20
1249.365956
 30
0.0
  0
SEQEND
  5
444
  8
DETAIL
  0
POLYLINE
  5
133
  8
DETAIL
 66
     1
 10
0.0
 20
0.0
 30
0.0
 70
     1
  0
VERTEX
  5
445
  8
DETAIL
 10
683.738277
 20
1275.188211
 30
0.0
  0
VERTEX
  5
446
  8
DETAIL
 10
683.738277
 20
1293.568828
 30
0.0
  0
VERTEX
  5
447
  8
DETAIL
 10
705.196799
 20
1293.568828
 30
0.0
  0
VERTEX
  5
448
  8
DETAIL
 10
705.196799
 20
1275.188211
 30
0.0
  0
SEQEND
  5
449
  8
DETAIL
  0
POLYLINE
  5
139
  8
DETAIL
 66
     1
 10
0.0
 20
0.0
 30
0.0
 70
     1
  0
VERTEX
  5
44A
  8
DETAIL
 10
683.738277
 20
1301.010466
 30
0.0
  0
VERTEX
  5
44B
  8
DETAIL
 10
683.738277
 20
1319.391083
 30
0.0
  0
VERTEX
  5
44C
  8
DETAIL
 10
705.196799
 20
1319.391083
 30
0.0
  0
VERTEX
  5
44D
  8
DETAIL
 10
705.196799
 20
1301.010466
 30
0.0
  0
SEQEND
  5
44E
  8
DETAIL
  0
CIRCLE
  5
13F
  8
DETAIL
 10
482.614512
 20
1307.982036
 30
0.0
 40
7.0
  0
CIRCLE
  5
140
  8
DETAIL
 10
482.614512
 20
1267.564615
 30
0.0
 40
20.0
  0
LINE
  5
141
  8
DETAIL
 10
766.0
 20
1232.010152
 30
0.0
 11
766.0
 21
1382.0
 31
0.0
  0
LINE
  5
142
  8
DETAIL
 10
766.0
 20
1245.089504
 30
0.0
 11
731.216707
 21
1245.089504
 31
0.0
  0
LINE
  5
143
  8
DETAIL
 10
766.0
 20
1232.010152
 30
0.0
 11
731.216707
 21
1203.680453
 31
0.0
  0
TEXT
  5
144
  8
STELTXT
 10
302.900143
 20
-197.738288
 30
0.0
 40
25.0
  1
ADJUSTABLE FEET
  0
TEXT
  5
145
  8
STELTXT
 10
302.900143
 20
-242.713355
 30
0.0
 40
25.0
  1
35mm - 45mm
  0
POLYLINE
  5
146
  8
ORIGIN
 66
     1
 10
0.0
 20
0.0
 30
0.0
  0
VERTEX
  5
44F
  8
ORIGIN
 10
0.0
 20
0.0
 30
0.0
  0
VERTEX
  5
450
  8
ORIGIN
 10
-100.0
 20
-100.0
 30
0.0
  0
VERTEX
  5
451
  8
ORIGIN
 10
-100.0
 20
100.0
 30
0.0
  0
VERTEX
  5
452
  8
ORIGIN
 10
100.0
 20
-100.0
 30
0.0
  0
VERTEX
  5
453
  8
ORIGIN
 10
100.0
 20
100.0
 30
0.0
  0
VERTEX
  5
454
  8
ORIGIN
 10
0.0
 20
0.0
 30
0.0
  0
SEQEND
  5
455
  8
ORIGIN
  0
TEXT
  5
14E
  8
STELTXT
 10
892.278595
 20
459.845033
 30
0.0
 40
25.0
  1
BURNER PLATE
  0
TEXT
  5
14F
  8
STELTXT
 10
883.97633
 20
866.361543
 30
0.0
 40
25.0
  1
FLUE OUTLET %%c200mm
  0
TEXT
  5
150
  8
STELTXT
 10
884.205858
 20
1058.070075
 30
0.0
 40
25.0
  1
TAPPING (THREADED)
  0
TEXT
  5
151
  8
STELTXT
 10
884.205858
 20
1098.070075
 30
0.0
 40
25.0
  1
%%C2 " WATER FLOW
  0
LINE
  5
154
  8
STELTXT
 10
833.040282
 20
879.134182
 30
0.0
 11
855.552969
 21
879.134182
 31
0.0
  0
SOLID
  5
155
  8
STELTXT
 10
465.326057
 20
414.797703
 30
0.0
 11
464.344896
 21
423.073074
 31
0.0
 12
440.009363
 22
415.991904
 32
0.0
 13
440.009363
 23
415.991904
 33
0.0
  0
LINE
  5
156
  8
STELTXT
 10
464.835477
 20
418.935389
 30
0.0
 11
832.483461
 21
465.367658
 31
0.0
  0
LINE
  5
157
  8
STELTXT
 10
832.483461
 20
465.367658
 30
0.0
 11
855.384171
 21
465.367658
 31
0.0
  0
SOLID
  5
158
  8
STELTXT
 10
149.197198
 20
-28.052945
 30
0.0
 11
156.883884
 21
-24.83436
 31
0.0
 12
143.384785
 22
-3.383593
 32
0.0
 13
143.384785
 23
-3.383593
 33
0.0
  0
LINE
  5
159
  8
STELTXT
 10
153.040541
 20
-26.443653
 30
0.0
 11
226.874997
 21
-203.89433
 31
0.0
  0
LINE
  5
15A
  8
STELTXT
 10
226.874997
 20
-203.89433
 30
0.0
 11
268.032331
 21
-203.89433
 31
0.0
  0
LINE
  5
15B
  8
DETAIL
 10
795.0
 20
35.0
 30
0.0
 11
0.0
 21
35.0
 31
0.0
  0
LINE
  5
15C
  8
DETAIL
 10
0.0
 20
35.0
 30
0.0
 11
0.0
 21
1188.0
 31
0.0
  0
LINE
  5
15D
  8
DETAIL
 10
0.0
 20
1188.0
 30
0.0
 11
795.0
 21
1188.0
 31
0.0
  0
LINE
  5
15E
  8
DETAIL
 10
795.0
 20
1188.0
 30
0.0
 11
795.0
 21
35.0
 31
0.0
  0
LINE
  5
15F
  8
DETAIL
 10
731.216707
 20
1188.0
 30
0.0
 11
731.216707
 21
1382.0
 31
0.0
  0
LINE
  5
160
  8
DETAIL
 10
32.0
 20
35.0
 30
0.0
 11
32.0
 21
1188.0
 31
0.0
  0
LINE
  5
161
  8
DETAIL
 10
763.0
 20
1188.0
 30
0.0
 11
763.0
 21
35.0
 31
0.0
  0
LINE
  5
169
  8
PLANNING
 10
1295.0
 20
0.0
 30
0.0
 11
-500.0
 21
0.0
 31
0.0
  0
LINE
  5
16A
  8
CENTER
 10
397.5
 20
293.958674
 30
0.0
 11
397.5
 21
480.041326
 31
0.0
  0
LINE
  5
16B
  8
DIMENSIONS
 10
795.0
 20
1203.0
 30
0.0
 11
795.0
 21
1674.931016
 31
0.0
  0
LINE
  5
16C
  8
DIMENSIONS
 10
0.0
 20
1203.0
 30
0.0
 11
0.0
 21
1674.931016
 31
0.0
  0
LINE
  5
16D
  8
DIMENSIONS
 10
770.0
 20
1659.931016
 30
0.0
 11
25.0
 21
1659.931016
 31
0.0
  0
SOLID
  5
16E
  8
DIMENSIONS
 10
770.0
 20
1664.097682
 30
0.0
 11
770.0
 21
1655.764349
 31
0.0
 12
795.0
 22
1659.931016
 32
0.0
 13
795.0
 23
1659.931016
 33
0.0
  0
SOLID
  5
16F
  8
DIMENSIONS
 10
25.0
 20
1664.097682
 30
0.0
 11
25.0
 21
1655.764349
 31
0.0
 12
0.0
 22
1659.931016
 32
0.0
 13
0.0
 23
1659.931016
 33
0.0
  0
TEXT
  5
170
  8
DIMENSIONS
 10
365.357143
 20
1684.931016
 30
0.0
 40
25.0
  1
795
 72
     1
 11
397.5
 21
1697.431016
 31
0.0
 73
     2
  0
LINE
  5
172
  8
CENTER
 10
490.541326
 20
387.0
 30
0.0
 11
304.458674
 21
387.0
 31
0.0
  0
CIRCLE
  5
173
  8
ORIGIN
 10
397.5
 20
387.0
 30
0.0
 40
50.0
  0
LINE
  5
174
  8
DETAIL
 10
245.86489
 20
622.232263
 30
0.0
 11
245.86489
 21
252.694648
 31
0.0
  0
LINE
  5
176
  8
DETAIL
 10
763.0
 20
252.694648
 30
0.0
 11
32.0
 21
252.694648
 31
0.0
  0
LINE
  5
177
  8
DETAIL
 10
549.13511
 20
622.232263
 30
0.0
 11
245.86489
 21
622.232263
 31
0.0
  0
LINE
  5
178
  8
CENTER
 10
450.751803
 20
1017.0
 30
0.0
 11
344.248197
 21
1017.0
 31
0.0
  0
LINE
  5
179
  8
CENTER
 10
397.5
 20
963.748197
 30
0.0
 11
397.5
 21
1070.251803
 31
0.0
  0
TEXT
  5
17A
  8
STELTXT
 10
884.205858
 20
1022.014551
 30
0.0
 40
25.0
  1
 
  0
LINE
  5
17B
  8
CENTER
 10
513.071551
 20
826.0
 30
0.0
 11
281.928449
 21
826.0
 31
0.0
  0
LINE
  5
17C
  8
CENTER
 10
397.5
 20
710.428449
 30
0.0
 11
397.5
 21
941.571551
 31
0.0
  0
LINE
  5
17D
  8
CENTER
 10
450.751803
 20
826.0
 30
0.0
 11
344.248197
 21
826.0
 31
0.0
  0
CIRCLE
  5
17E
  8
DETAIL
  6
DASHED
 10
397.5
 20
826.0
 30
0.0
 40
100.0
  0
TEXT
  5
180
  8
STELTXT
 10
892.636888
 20
183.596537
 30
0.0
 40
25.0
  1
 
  0
LINE
  5
186
  8
PLANNING
 10
1295.0
 20
1382.0
 30
0.0
 11
1295.0
 21
0.0
 31
0.0
  0
LINE
  5
187
  8
PLANNING
 10
-500.0
 20
0.0
 30
0.0
 11
-500.0
 21
1382.0
 31
0.0
  0
LINE
  5
188
  8
PLANNING
 10
-500.0
 20
1382.0
 30
0.0
 11
1295.0
 21
1382.0
 31
0.0
  0
CIRCLE
  5
189
  8
DETAIL
 10
290.150316
 20
570.214987
 30
0.0
 40
13.578721
  0
LINE
  5
18E
  8
DIMENSIONS
 10
-15.0
 20
0.0
 30
0.0
 11
-347.058824
 21
0.0
 31
0.0
  0
SOLID
  5
18F
  8
DIMENSIONS
 10
-327.892157
 20
25.0
 30
0.0
 11
-336.225491
 21
25.0
 31
0.0
 12
-332.058824
 22
0.0
 32
0.0
 13
-332.058824
 23
0.0
 33
0.0
  0
TEXT
  5
190
  8
DIMENSIONS
 10
-346.677317
 20
588.214286
 30
0.0
 40
25.0
  1
1192
 50
90.0
 72
     1
 11
-359.177317
 21
627.5
 31
0.0
 73
     2
  0
LINE
  5
191
  8
DIMENSIONS
 10
-332.058824
 20
1163.0
 30
0.0
 11
-332.058824
 21
0.0
 31
0.0
  0
LINE
  5
192
  8
DIMENSIONS
 10
-15.0
 20
1188.0
 30
0.0
 11
-347.058824
 21
1188.0
 31
0.0
  0
SOLID
  5
193
  8
DIMENSIONS
 10
-327.892157
 20
1163.0
 30
0.0
 11
-336.225491
 21
1163.0
 31
0.0
 12
-332.058824
 22
1188.0
 32
0.0
 13
-332.058824
 23
1188.0
 33
0.0
  0
SOLID
  5
194
  8
STELTXT
 10
526.051099
 20
842.600845
 30
0.0
 11
525.200906
 21
850.890695
 31
0.0
 12
500.756452
 22
844.195191
 32
0.0
 13
500.756452
 23
844.195191
 33
0.0
  0
LINE
  5
195
  8
STELTXT
 10
525.626003
 20
846.74577
 30
0.0
 11
833.040282
 21
879.134182
 31
0.0
  0
SOLID
  5
196
  8
STELTXT
 10
443.875641
 20
1031.054906
 30
0.0
 11
443.007956
 21
1039.342943
 31
0.0
 12
418.577686
 22
1032.595869
 32
0.0
 13
418.577686
 23
1032.595869
 33
0.0
  0
LINE
  5
197
  8
STELTXT
 10
443.441798
 20
1035.198924
 30
0.0
 11
829.53107
 21
1075.370572
 31
0.0
  0
LINE
  5
198
  8
STELTXT
 10
829.551797
 20
1075.523514
 30
0.0
 11
852.064484
 21
1075.523514
 31
0.0
  0
LINE
  5
199
  8
DIMENSIONS
 10
856.166035
 20
60.0
 30
0.0
 11
856.166035
 21
85.0
 31
0.0
  0
TEXT
  5
19A
  8
DIMENSIONS
 10
838.988382
 20
49.164369
 30
0.0
 40
25.0
  1
35
 50
90.0
 72
     1
 11
826.488382
 21
69.402464
 31
0.0
 73
     2
  0
LINE
  5
19B
  8
DIMENSIONS
 10
810.0
 20
35.0
 30
0.0
 11
871.166035
 21
35.0
 31
0.0
  0
SOLID
  5
19C
  8
DIMENSIONS
 10
851.999368
 20
60.0
 30
0.0
 11
860.332702
 21
60.0
 31
0.0
 12
856.166035
 22
35.0
 32
0.0
 13
856.166035
 23
35.0
 33
0.0
  0
LINE
  5
19D
  8
DIMENSIONS
 10
856.166035
 20
-25.0
 30
0.0
 11
856.166035
 21
-50.0
 31
0.0
  0
SOLID
  5
19E
  8
DIMENSIONS
 10
851.999368
 20
-25.0
 30
0.0
 11
860.332702
 21
-25.0
 31
0.0
 12
856.166035
 22
0.0
 32
0.0
 13
856.166035
 23
0.0
 33
0.0
  0
LINE
  5
19F
  8
DIMENSIONS
 10
373.005362
 20
387.0
 30
0.0
 11
-73.624922
 21
387.0
 31
0.0
  0
LINE
  5
1A0
  8
DIMENSIONS
 10
-58.624922
 20
362.0
 30
0.0
 11
-58.624922
 21
25.0
 31
0.0
  0
SOLID
  5
1A1
  8
DIMENSIONS
 10
-62.791589
 20
362.0
 30
0.0
 11
-54.458255
 21
362.0
 31
0.0
 12
-58.624922
 22
387.0
 32
0.0
 13
-58.624922
 23
387.0
 33
0.0
  0
TEXT
  5
1A2
  8
DIMENSIONS
 10
-79.586267
 20
161.357143
 30
0.0
 40
25.0
  1
387
 50
90.0
 72
     1
 11
-92.086267
 21
193.5
 31
0.0
 73
     2
  0
SOLID
  5
1A3
  8
DIMENSIONS
 10
-62.791589
 20
25.0
 30
0.0
 11
-54.458255
 21
25.0
 31
0.0
 12
-58.624922
 22
0.0
 32
0.0
 13
-58.624922
 23
0.0
 33
0.0
  0
LINE
  5
1B1
  8
DIMENSIONS
  6
CONTINUOUS
 10
14.0
 20
1382.0
 30
0.0
 11
-440.778809
 21
1382.0
 31
0.0
  0
LINE
  5
1B2
  8
DIMENSIONS
  6
CONTINUOUS
 10
-15.0
 20
0.0
 30
0.0
 11
-440.778809
 21
0.0
 31
0.0
  0
LINE
  5
1B3
  8
DIMENSIONS
  6
CONTINUOUS
 10
-425.778809
 20
1382.0
 30
0.0
 11
-425.778809
 21
0.0
 31
0.0
  0
SOLID
  5
1B4
  8
DIMENSIONS
  6
CONTINUOUS
 10
-429.945475
 20
1357.0
 30
0.0
 11
-421.612142
 21
1357.0
 31
0.0
 12
-425.778809
 22
1382.0
 32
0.0
 13
-425.778809
 23
1382.0
 33
0.0
  0
SOLID
  5
1B5
  8
DIMENSIONS
  6
CONTINUOUS
 10
-429.945475
 20
25.0
 30
0.0
 11
-421.612142
 21
25.0
 31
0.0
 12
-425.778809
 22
0.0
 32
0.0
 13
-425.778809
 23
0.0
 33
0.0
  0
TEXT
  5
1B6
  8
DIMENSIONS
  6
CONTINUOUS
 10
-440.903255
 20
667.119048
 30
0.0
 40
25.0
  1
1382
 50
90.0
  0
LINE
  5
1BA
  8
DIMENSIONS
  6
CONTINUOUS
 10
397.5
 20
1085.251803
 30
0.0
 11
397.5
 21
1486.543585
 31
0.0
  0
LINE
  5
1BC
  8
DIMENSIONS
  6
CONTINUOUS
 10
372.5
 20
1486.543585
 30
0.0
 11
25.0
 21
1486.543585
 31
0.0
  0
SOLID
  5
1BD
  8
DIMENSIONS
  6
CONTINUOUS
 10
372.5
 20
1490.710252
 30
0.0
 11
372.5
 21
1482.376918
 31
0.0
 12
397.5
 22
1486.543585
 32
0.0
 13
397.5
 23
1486.543585
 33
0.0
  0
SOLID
  5
1BE
  8
DIMENSIONS
  6
CONTINUOUS
 10
25.0
 20
1490.710252
 30
0.0
 11
25.0
 21
1482.376918
 31
0.0
 12
0.0
 22
1486.543585
 32
0.0
 13
0.0
 23
1486.543585
 33
0.0
  0
TEXT
  5
1BF
  8
DIMENSIONS
  6
CONTINUOUS
 10
188.035714
 20
1511.543585
 30
0.0
 40
25.0
  1
=
  0
LINE
  5
1C0
  8
DIMENSIONS
  6
CONTINUOUS
 10
422.5
 20
1486.543585
 30
0.0
 11
770.0
 21
1486.543585
 31
0.0
  0
SOLID
  5
1C1
  8
DIMENSIONS
  6
CONTINUOUS
 10
770.0
 20
1490.710252
 30
0.0
 11
770.0
 21
1482.376918
 31
0.0
 12
795.0
 22
1486.543585
 32
0.0
 13
795.0
 23
1486.543585
 33
0.0
  0
TEXT
  5
1C3
  8
DIMENSIONS
  6
CONTINUOUS
 10
585.535714
 20
1511.543585
 30
0.0
 40
25.0
  1
=
  0
SOLID
  5
1C4
  8
DIMENSIONS
  6
CONTINUOUS
 10
422.5
 20
1490.710252
 30
0.0
 11
422.5
 21
1482.376918
 31
0.0
 12
397.5
 22
1486.543585
 32
0.0
 13
397.5
 23
1486.543585
 33
0.0
  0
LINE
  5
1C5
  8
DIMENSIONS
  6
CONTINUOUS
 10
397.5
 20
1085.251803
 30
0.0
 11
397.5
 21
1127.099607
 31
0.0
  0
LINE
  5
1D1
  8
DIMENSIONS
  6
CONTINUOUS
 10
329.248197
 20
1017.0
 30
0.0
 11
-255.52851
 21
1017.0
 31
0.0
  0
LINE
  5
1D3
  8
DIMENSIONS
  6
CONTINUOUS
 10
-240.52851
 20
992.0
 30
0.0
 11
-240.52851
 21
25.0
 31
0.0
  0
SOLID
  5
1D4
  8
DIMENSIONS
  6
CONTINUOUS
 10
-244.695176
 20
992.0
 30
0.0
 11
-236.361843
 21
992.0
 31
0.0
 12
-240.52851
 22
1017.0
 32
0.0
 13
-240.52851
 23
1017.0
 33
0.0
  0
SOLID
  5
1D5
  8
DIMENSIONS
  6
CONTINUOUS
 10
-244.695176
 20
25.0
 30
0.0
 11
-236.361843
 21
25.0
 31
0.0
 12
-240.52851
 22
0.0
 32
0.0
 13
-240.52851
 23
0.0
 33
0.0
  0
TEXT
  5
1D6
  8
DIMENSIONS
  6
CONTINUOUS
 10
-256.015943
 20
469.214286
 30
0.0
 40
25.0
  1
1017
 50
90.0
  0
LINE
  5
1D7
  8
DIMENSIONS
  6
CONTINUOUS
 10
266.928449
 20
826.0
 30
0.0
 11
-141.743835
 21
826.0
 31
0.0
  0
LINE
  5
1D9
  8
DIMENSIONS
  6
CONTINUOUS
 10
-126.743835
 20
801.0
 30
0.0
 11
-126.743835
 21
25.0
 31
0.0
  0
SOLID
  5
1DA
  8
DIMENSIONS
  6
CONTINUOUS
 10
-130.910502
 20
801.0
 30
0.0
 11
-122.577168
 21
801.0
 31
0.0
 12
-126.743835
 22
826.0
 32
0.0
 13
-126.743835
 23
826.0
 33
0.0
  0
SOLID
  5
1DB
  8
DIMENSIONS
  6
CONTINUOUS
 10
-130.910502
 20
25.0
 30
0.0
 11
-122.577168
 21
25.0
 31
0.0
 12
-126.743835
 22
0.0
 32
0.0
 13
-126.743835
 23
0.0
 33
0.0
  0
TEXT
  5
1DC
  8
DIMENSIONS
  6
CONTINUOUS
 10
-151.743835
 20
381.452381
 30
0.0
 40
25.0
  1
826
 50
90.0
  0
LINE
  5
203
  8
DIMENSIONS
 10
810.0
 20
0.0
 30
0.0
 11
871.166035
 21
0.0
 31
0.0
  0
LINE
  5
23E
  8
STELTXT
 10
642.618355
 20
1256.187183
 30
0.0
 11
785.689076
 21
1274.256365
 31
0.0
  0
SOLID
  5
23F
  8
STELTXT
 10
643.108936
 20
1252.049497
 30
0.0
 11
642.127774
 21
1260.324868
 31
0.0
 12
617.792242
 22
1253.243698
 32
0.0
 13
617.792242
 23
1253.243698
 33
0.0
  0
TEXT
  5
240
  8
STELTXT
 10
884.59419
 20
1278.626333
 30
0.0
 40
25.0
  1
DELUXE CONTROL 
  0
LINE
  5
241
  8
STELTXT
 10
785.689076
 20
1274.256365
 30
0.0
 11
852.449925
 21
1274.256365
 31
0.0
  0
TEXT
  5
242
  8
STELTXT
 10
884.59419
 20
1238.923999
 30
0.0
 40
25.0
  1
PANEL (Optional)
  0
LINE
  5
29D
  8
DETAIL
 10
549.13511
 20
622.232263
 30
0.0
 11
549.13511
 21
252.694648
 31
0.0
  0
ATTDEF
  5
2D4
  8
STELATT
 10
302.148702
 20
-444.324227
 30
0.0
 40
40.0
  1
8
 72
     4
 11
395.482035
 21
-424.324227
 31
0.0
  3

  2
MODEL
 70
     2
  0
ATTDEF
  5
2D5
  8
STELATT
 10
326.910607
 20
-374.324227
 30
0.0
 40
40.0
  1
HARRIER GT
 72
     4
 11
395.482035
 21
-354.324227
 31
0.0
  3

  2
TYPE
 70
     2
  0
ATTDEF
  5
2D6
  8
STELATT
 10
162.148702
 20
-304.324227
 30
0.0
 40
40.0
  1
IDEAL
 72
     4
 11
395.482035
 21
-284.324227
 31
0.0
  3

  2
MANUFACTURER
 70
     2
  0
LINE
  5
314
  8
DETAIL
 10
140.496655
 20
0.0
 30
0.0
 11
110.5
 21
0.0
 31
0.0
  0
ARC
  5
316
  8
DETAIL
 10
110.5
 20
10.0
 30
0.0
 40
10.0
 50
180.0
 51
270.0
  0
LINE
  5
317
  8
DETAIL
 10
100.5
 20
10.0
 30
0.0
 11
100.5
 21
35.0
 31
0.0
  0
ARC
  5
318
  8
DETAIL
 10
140.496655
 20
10.0
 30
0.0
 40
10.0
 50
270.0
 51
0.0
  0
LINE
  5
319
  8
DETAIL
 10
150.496655
 20
10.0
 30
0.0
 11
150.496655
 21
35.0
 31
0.0
  0
LINE
  5
31B
  8
DETAIL
 10
654.503345
 20
0.0
 30
0.0
 11
684.5
 21
0.0
 31
0.0
  0
ARC
  5
31C
  8
DETAIL
 10
684.5
 20
10.0
 30
0.0
 40
10.0
 50
270.0
 51
0.0
  0
LINE
  5
31D
  8
DETAIL
 10
694.5
 20
10.0
 30
0.0
 11
694.5
 21
35.0
 31
0.0
  0
ARC
  5
31E
  8
DETAIL
 10
654.503345
 20
10.0
 30
0.0
 40
10.0
 50
180.0
 51
270.0
  0
LINE
  5
31F
  8
DETAIL
 10
644.503345
 20
10.0
 30
0.0
 11
644.503345
 21
35.0
 31
0.0
  0
TEXT
  5
320
  8
STELTXT
 10
932.294149
 20
1102.440345
 30
0.0
 40
15.0
  1
/
  0
TEXT
  5
321
  8
STELTXT
 10
927.207541
 20
1106.848175
 30
0.0
 40
15.0
  1
1
  0
TEXT
  5
322
  8
STELTXT
 10
943.480939
 20
1098.034025
 30
0.0
 40
15.0
  1
2
  0
TEXT
  5
32A
  8
0
 10
315.238095
 20
-71.807431
 30
0.0
 40
25.0
  1
105
  0
LINE
  5
32B
  8
DIMENSIONS
 10
317.5
 20
-87.203147
 30
0.0
 11
372.5
 21
-87.203147
 31
0.0
  0
TEXT
  5
32C
  8
DIMENSIONS
  6
CONTINUOUS
 10
225.433132
 20
50.773353
 30
0.0
 40
25.0
  1
22
 50
90.0
  0
LINE
  5
32D
  8
CENTER
  6
CENTER
 10
292.5
 20
185.876929
 30
0.0
 11
292.5
 21
53.123071
 31
0.0
  0
LINE
  5
32E
  8
DIMENSIONS
  6
CONTINUOUS
 10
217.49157
 20
137.0
 30
0.0
 11
339.577355
 21
137.0
 31
0.0
  0
LINE
  5
32F
  8
CENTER
 10
341.376929
 20
115.0
 30
0.0
 11
243.623071
 21
115.0
 31
0.0
  0
LINE
  5
330
  8
DIMENSIONS
  6
CONTINUOUS
 10
236.682882
 20
90.0
 30
0.0
 11
236.682882
 21
34.535602
 31
0.0
  0
LINE
  5
331
  8
DIMENSIONS
  6
CONTINUOUS
 10
211.072013
 20
115.0
 30
0.0
 11
251.682882
 21
115.0
 31
0.0
  0
SOLID
  5
332
  8
DIMENSIONS
  6
CONTINUOUS
 10
240.849549
 20
90.0
 30
0.0
 11
232.516215
 21
90.0
 31
0.0
 12
236.682882
 22
115.0
 32
0.0
 13
236.682882
 23
115.0
 33
0.0
  0
SOLID
  5
333
  8
DIMENSIONS
  6
CONTINUOUS
 10
240.849549
 20
162.0
 30
0.0
 11
232.516215
 21
162.0
 31
0.0
 12
236.682882
 22
137.0
 32
0.0
 13
236.682882
 23
137.0
 33
0.0
  0
SOLID
  5
334
  8
DIMENSIONS
 10
317.5
 20
-83.03648
 30
0.0
 11
317.5
 21
-91.369813
 31
0.0
 12
292.5
 22
-87.203147
 32
0.0
 13
292.5
 23
-87.203147
 33
0.0
  0
LINE
  5
335
  8
DIMENSIONS
 10
292.5
 20
38.123071
 30
0.0
 11
292.5
 21
-102.203147
 31
0.0
  0
SOLID
  5
336
  8
STELTXT
 10
330.206227
 20
78.957148
 30
0.0
 11
334.999515
 21
85.773953
 31
0.0
 12
312.152453
 22
96.745412
 32
0.0
 13
312.152453
 23
96.745412
 33
0.0
  0
LINE
  5
337
  8
CENTER
  6
CENTER
 10
397.5
 20
185.876929
 30
0.0
 11
397.5
 21
53.123071
 31
0.0
  0
SOLID
  5
338
  8
STELTXT
 10
430.144057
 20
141.300821
 30
0.0
 11
429.193735
 21
149.57979
 31
0.0
 12
404.831988
 22
142.589341
 32
0.0
 13
404.831988
 23
142.589341
 33
0.0
  0
LINE
  5
339
  8
CENTER
 10
446.376929
 20
137.0
 30
0.0
 11
348.623071
 21
137.0
 31
0.0
  0
SOLID
  5
33A
  8
DIMENSIONS
 10
372.5
 20
-83.03648
 30
0.0
 11
372.5
 21
-91.369813
 31
0.0
 12
397.5
 22
-87.203147
 32
0.0
 13
397.5
 23
-87.203147
 33
0.0
  0
LINE
  5
33B
  8
DIMENSIONS
 10
397.5
 20
38.123071
 30
0.0
 11
397.5
 21
-102.203147
 31
0.0
  0
TEXT
  5
33C
  8
STELTXT
 10
887.863741
 20
175.370761
 30
0.0
 40
25.0
  1
TAPPING (THREADED)
  0
TEXT
  5
33D
  8
STELTXT
 10
887.863741
 20
215.370761
 30
0.0
 40
25.0
  1
%%C2" WATER RETURN
  0
TEXT
  5
33E
  8
STELTXT
 10
886.104072
 20
128.018646
 30
0.0
 40
25.0
  1
%%C1 " DRAIN(THREADED)
  0
LINE
  5
33F
  8
STELTXT
 10
429.668896
 20
145.440305
 30
0.0
 11
841.106894
 21
226.22164
 31
0.0
  0
LINE
  5
340
  8
STELTXT
 10
841.106894
 20
226.22164
 30
0.0
 11
865.501457
 21
226.22164
 31
0.0
  0
TEXT
  5
341
  8
STELTXT
 10
936.669175
 20
129.819477
 30
0.0
 40
15.0
  1
2
  0
TEXT
  5
342
  8
STELTXT
 10
920.395777
 20
138.633627
 30
0.0
 40
15.0
  1
1
  0
TEXT
  5
343
  8
STELTXT
 10
925.482385
 20
134.225797
 30
0.0
 40
15.0
  1
/
  0
LINE
  5
344
  8
DIMENSIONS
  6
CONTINUOUS
 10
461.376929
 20
137.0
 30
0.0
 11
583.462714
 21
137.0
 31
0.0
  0
TEXT
  5
345
  8
DIMENSIONS
  6
CONTINUOUS
 10
557.212964
 20
38.738095
 30
0.0
 40
25.0
  1
137
 50
90.0
  0
LINE
  5
346
  8
DIMENSIONS
  6
CONTINUOUS
 10
568.462714
 20
112.0
 30
0.0
 11
568.462714
 21
25.0
 31
0.0
  0
SOLID
  5
347
  8
DIMENSIONS
  6
CONTINUOUS
 10
572.62938
 20
25.0
 30
0.0
 11
564.296047
 21
25.0
 31
0.0
 12
568.462714
 22
0.0
 32
0.0
 13
568.462714
 23
0.0
 33
0.0
  0
SOLID
  5
348
  8
DIMENSIONS
  6
CONTINUOUS
 10
572.62938
 20
112.0
 30
0.0
 11
564.296047
 21
112.0
 31
0.0
 12
568.462714
 22
137.0
 32
0.0
 13
568.462714
 23
137.0
 33
0.0
  0
LINE
  5
349
  8
DIMENSIONS
 10
554.213183
 20
0.0
 30
0.0
 11
636.742881
 21
0.0
 31
0.0
  0
LINE
  5
34A
  8
STELTXT
 10
332.602871
 20
82.36555
 30
0.0
 11
662.196434
 21
-127.424631
 31
0.0
  0
TEXT
  5
34B
  8
STELTXT
 10
777.965215
 20
-140.604664
 30
0.0
 40
25.0
  1
THREADED 1 " GAS
  0
LINE
  5
34C
  8
STELTXT
 10
662.196434
 20
-127.424631
 30
0.0
 11
748.500575
 21
-127.424631
 31
0.0
  0
TEXT
  5
34D
  8
STELTXT
 10
1009.486311
 20
-133.419321
 30
0.0
 40
15.0
  1
1
  0
TEXT
  5
34E
  8
STELTXT
 10
1025.75971
 20
-142.233472
 30
0.0
 40
15.0
  1
2
  0
TEXT
  5
34F
  8
STELTXT
 10
1014.57292
 20
-137.827151
 30
0.0
 40
15.0
  1
/
  0
ENDSEC
  0
EOF
