  0
SECTION
  2
HEADER
  9
$ACADVER
  1
AC1009
  9
$INSBASE
 10
0.0
 20
0.0
 30
0.0
  9
$EXTMIN
 10
-100.05461
 20
-479.752167
 30
0.0
  9
$EXTMAX
 10
795.054639
 20
1738.027561
 30
0.0
  9
$LIMMIN
 10
0.0
 20
0.0
  9
$LIMMAX
 10
420.0
 20
297.0
  9
$ORTHOMODE
 70
     1
  9
$REGENMODE
 70
     1
  9
$FILLMODE
 70
     1
  9
$QTEXTMODE
 70
     0
  9
$MIRRTEXT
 70
     0
  9
$DRAGMODE
 70
     2
  9
$LTSCALE
 40
25.0
  9
$OSMODE
 70
     0
  9
$ATTMODE
 70
     1
  9
$TEXTSIZE
 40
2.0
  9
$TRACEWID
 40
10.0
  9
$TEXTSTYLE
  7
STANDARD
  9
$CLAYER
  8
0
  9
$CELTYPE
  6
BYLAYER
  9
$CECOLOR
 62
   256
  9
$DIMSCALE
 40
1.0
  9
$DIMASZ
 40
25.0
  9
$DIMEXO
 40
15.0
  9
$DIMDLI
 40
10.0
  9
$DIMRND
 40
0.0
  9
$DIMDLE
 40
1.25
  9
$DIMEXE
 40
15.0
  9
$DIMTP
 40
0.0
  9
$DIMTM
 40
0.0
  9
$DIMTXT
 40
25.0
  9
$DIMCEN
 40
-3.0
  9
$DIMTSZ
 40
0.0
  9
$DIMTOL
 70
     0
  9
$DIMLIM
 70
     0
  9
$DIMTIH
 70
     0
  9
$DIMTOH
 70
     0
  9
$DIMSE1
 70
     0
  9
$DIMSE2
 70
     0
  9
$DIMTAD
 70
     0
  9
$DIMZIN
 70
     1
  9
$DIMBLK
  1

  9
$DIMASO
 70
     0
  9
$DIMSHO
 70
     0
  9
$DIMPOST
  1

  9
$DIMAPOST
  1

  9
$DIMALT
 70
     0
  9
$DIMALTD
 70
     2
  9
$DIMALTF
 40
0.039
  9
$DIMLFAC
 40
1.0
  9
$DIMTOFL
 70
     0
  9
$DIMTVP
 40
1.5
  9
$DIMTIX
 70
     0
  9
$DIMSOXD
 70
     0
  9
$DIMSAH
 70
     0
  9
$DIMBLK1
  1

  9
$DIMBLK2
  1

  9
$DIMSTYLE
  2
STANDARD
  9
$DIMCLRD
 70
     0
  9
$DIMCLRE
 70
     0
  9
$DIMCLRT
 70
     0
  9
$DIMTFAC
 40
1.0
  9
$DIMGAP
 40
0.09
  9
$LUNITS
 70
     2
  9
$LUPREC
 70
     2
  9
$SKETCHINC
 40
1.0
  9
$FILLETRAD
 40
0.0
  9
$AUNITS
 70
     0
  9
$AUPREC
 70
     4
  9
$MENU
  1
acad
  9
$ELEVATION
 40
0.0
  9
$PELEVATION
 40
0.0
  9
$THICKNESS
 40
0.0
  9
$LIMCHECK
 70
     0
  9
$BLIPMODE
 70
     0
  9
$CHAMFERA
 40
66.0
  9
$CHAMFERB
 40
66.0
  9
$SKPOLY
 70
     1
  9
$TDCREATE
 40
2450091.589221
  9
$TDUPDATE
 40
2453073.533824
  9
$TDINDWG
 40
0.00498
  9
$TDUSRTIMER
 40
0.00498
  9
$USRTIMER
 70
     1
  9
$ANGBASE
 50
0.0
  9
$ANGDIR
 70
     0
  9
$PDMODE
 70
     3
  9
$PDSIZE
 40
0.0
  9
$PLINEWID
 40
0.0
  9
$COORDS
 70
     1
  9
$SPLFRAME
 70
     0
  9
$SPLINETYPE
 70
     6
  9
$SPLINESEGS
 70
     6
  9
$ATTDIA
 70
     0
  9
$ATTREQ
 70
     1
  9
$HANDLING
 70
 22529
  9
$HANDSEED
  5
266
  9
$SURFTAB1
 70
    12
  9
$SURFTAB2
 70
    12
  9
$SURFTYPE
 70
     6
  9
$SURFU
 70
    12
  9
$SURFV
 70
    12
  9
$UCSNAME
  2

  9
$UCSORG
 10
0.0
 20
0.0
 30
0.0
  9
$UCSXDIR
 10
1.0
 20
0.0
 30
0.0
  9
$UCSYDIR
 10
0.0
 20
1.0
 30
0.0
  9
$PUCSNAME
  2

  9
$PUCSORG
 10
0.0
 20
0.0
 30
0.0
  9
$PUCSXDIR
 10
1.0
 20
0.0
 30
0.0
  9
$PUCSYDIR
 10
0.0
 20
1.0
 30
0.0
  9
$USERI1
 70
     0
  9
$USERI2
 70
     0
  9
$USERI3
 70
     0
  9
$USERI4
 70
     0
  9
$USERI5
 70
     0
  9
$USERR1
 40
0.0
  9
$USERR2
 40
0.0
  9
$USERR3
 40
0.0
  9
$USERR4
 40
0.0
  9
$USERR5
 40
0.0
  9
$WORLDVIEW
 70
     0
  9
$SHADEDGE
 70
     3
  9
$SHADEDIF
 70
    70
  9
$TILEMODE
 70
     1
  9
$MAXACTVP
 70
    16
  9
$PLIMCHECK
 70
     0
  9
$PEXTMIN
 10
1.000000E+020
 20
1.000000E+020
 30
1.000000E+020
  9
$PEXTMAX
 10
-1.000000E+020
 20
-1.000000E+020
 30
-1.000000E+020
  9
$PLIMMIN
 10
0.0
 20
0.0
  9
$PLIMMAX
 10
12.0
 20
9.0
  9
$UNITMODE
 70
     0
  9
$VISRETAIN
 70
     0
  9
$PLINEGEN
 70
     0
  9
$PSLTSCALE
 70
     0
  0
ENDSEC
  0
SECTION
  2
TABLES
  0
TABLE
  2
VPORT
 70
     2
  0
VPORT
  2
*ACTIVE
 70
     0
 10
0.0
 20
0.0
 11
1.0
 21
1.0
 12
347.500014
 22
629.137697
 13
0.0
 23
0.0
 14
10.0
 24
10.0
 15
0.0
 25
0.0
 16
0.0
 26
0.0
 36
1.0
 17
0.0
 27
0.0
 37
0.0
 40
2243.320377
 41
1.825
 42
50.0
 43
0.0
 44
0.0
 50
0.0
 51
0.0
 71
     0
 72
 20000
 73
     1
 74
     2
 75
     0
 76
     0
 77
     0
 78
     1
  0
ENDTAB
  0
TABLE
  2
LTYPE
 70
     3
  0
LTYPE
  2
CONTINUOUS
 70
     0
  3
Solid line
 72
    65
 73
     0
 40
0.0
  0
LTYPE
  2
DASHED
 70
     0
  3
__ __ __ __ __ __ __ __ __ __ __ __ __ __ __
 72
    65
 73
     2
 40
0.75
 49
0.5
 49
-0.25
  0
LTYPE
  2
CENTER
 70
     0
  3
____ _ ____ _ ____ _ ____ _ ____ _ ____ _ ____
 72
    65
 73
     4
 40
2.0
 49
1.25
 49
-0.25
 49
0.25
 49
-0.25
  0
ENDTAB
  0
TABLE
  2
LAYER
 70
     8
  0
LAYER
  2
0
 70
     0
 62
     7
  6
CONTINUOUS
  0
LAYER
  2
DETAIL
 70
     0
 62
     2
  6
CONTINUOUS
  0
LAYER
  2
DIMENSIONS
 70
     1
 62
     7
  6
CONTINUOUS
  0
LAYER
  2
PLANNING
 70
     1
 62
     1
  6
DASHED
  0
LAYER
  2
CENTER
 70
     1
 62
     4
  6
CENTER
  0
LAYER
  2
ORIGIN
 70
     0
 62
     6
  6
CONTINUOUS
  0
LAYER
  2
STELTXT
 70
     1
 62
     4
  6
CONTINUOUS
  0
LAYER
  2
STELATT
 70
     0
 62
     7
  6
CONTINUOUS
  0
ENDTAB
  0
TABLE
  2
STYLE
 70
     1
  0
STYLE
  2
STANDARD
 70
     0
 40
0.0
 41
1.0
 50
0.0
 71
     0
 42
2.0
  3
simplex
  4

  0
ENDTAB
  0
TABLE
  2
VIEW
 70
     0
  0
ENDTAB
  0
TABLE
  2
UCS
 70
     0
  0
ENDTAB
  0
TABLE
  2
APPID
 70
     1
  0
APPID
  2
ACAD
 70
     0
  0
ENDTAB
  0
TABLE
  2
DIMSTYLE
 70
     1
  0
DIMSTYLE
  2
STANDARD
 70
     0
  3

  4

  5

  6

  7

 40
1.0
 41
0.18
 42
0.0625
 43
0.38
 44
0.18
 45
0.0
 46
0.0
 47
0.0
 48
0.0
140
0.18
141
0.09
142
0.0
143
25.4
144
1.0
145
0.0
146
1.0
147
0.09
 71
     0
 72
     0
 73
     1
 74
     1
 75
     0
 76
     0
 77
     0
 78
     0
170
     0
171
     2
172
     0
173
     0
174
     0
175
     0
176
     0
177
     0
178
     0
  0
ENDTAB
  0
ENDSEC
  0
SECTION
  2
BLOCKS
  0
BLOCK
  8
0
  2
$MODEL_SPACE
 70
     0
 10
0.0
 20
0.0
 30
0.0
  3
$MODEL_SPACE
  1

  0
ENDBLK
  5
15F
  8
0
  0
BLOCK
 67
     1
  8
0
  2
$PAPER_SPACE
 70
     0
 10
0.0
 20
0.0
 30
0.0
  3
$PAPER_SPACE
  1

  0
ENDBLK
  5
15D
 67
     1
  8
0
  0
ENDSEC
  0
SECTION
  2
ENTITIES
  0
LINE
  5
2B
  8
PLANNING
 10
-500.0
 20
-1500.0
 30
0.0
 11
-500.0
 21
2608.0
 31
0.0
  0
LINE
  5
2C
  8
PLANNING
 10
1295.0
 20
2608.0
 30
0.0
 11
1295.0
 21
-1500.0
 31
0.0
  0
LINE
  5
2D
  8
PLANNING
 10
1295.0
 20
-1500.0
 30
0.0
 11
-500.0
 21
-1500.0
 31
0.0
  0
LINE
  5
2E
  8
DIMENSIONS
 10
770.0
 20
2079.931016
 30
0.0
 11
25.0
 21
2079.931016
 31
0.0
  0
POLYLINE
  5
2F
  8
DETAIL
 66
     1
 10
0.0
 20
0.0
 30
0.0
 70
     1
  0
VERTEX
  5
258
  8
DETAIL
 10
20.0
 20
115.0
 30
0.0
  0
VERTEX
  5
259
  8
DETAIL
 10
20.0
 20
470.0
 30
0.0
  0
VERTEX
  5
25A
  8
DETAIL
 10
775.0
 20
470.0
 30
0.0
  0
VERTEX
  5
25B
  8
DETAIL
 10
775.0
 20
115.0
 30
0.0
  0
SEQEND
  5
25C
  8
DETAIL
  0
LINE
  5
35
  8
DETAIL
 10
795.0
 20
1608.0
 30
0.0
 11
0.0
 21
1608.0
 31
0.0
  0
LINE
  5
36
  8
DETAIL
 10
63.783293
 20
190.714984
 30
0.0
 11
740.216707
 21
190.714984
 31
0.0
  0
LINE
  5
37
  8
DETAIL
 10
772.0
 20
0.0
 30
0.0
 11
0.0
 21
0.0
 31
0.0
  0
LINE
  5
38
  8
DETAIL
 10
772.0
 20
32.0
 30
0.0
 11
23.0
 21
32.0
 31
0.0
  0
LINE
  5
39
  8
DETAIL
 10
23.0
 20
470.0
 30
0.0
 11
23.0
 21
1608.0
 31
0.0
  0
LINE
  5
3A
  8
DIMENSIONS
 10
-236.201156
 20
1583.0
 30
0.0
 11
-236.201156
 21
25.0
 31
0.0
  0
LINE
  5
3B
  8
DETAIL
 10
0.0
 20
53.249131
 30
0.0
 11
0.0
 21
1608.0
 31
0.0
  0
LINE
  5
3C
  8
DETAIL
 10
63.783293
 20
115.0
 30
0.0
 11
63.783293
 21
470.0
 31
0.0
  0
LINE
  5
3D
  8
DIMENSIONS
 10
13.43743
 20
0.0
 30
0.0
 11
-251.201156
 21
0.0
 31
0.0
  0
SOLID
  5
3E
  8
DIMENSIONS
 10
-240.367823
 20
25.0
 30
0.0
 11
-232.03449
 21
25.0
 31
0.0
 12
-236.201156
 22
0.0
 32
0.0
 13
-236.201156
 23
0.0
 33
0.0
  0
LINE
  5
3F
  8
DETAIL
 10
23.0
 20
0.0
 30
0.0
 11
23.0
 21
115.0
 31
0.0
  0
LINE
  5
40
  8
DETAIL
 10
23.0
 20
53.249131
 30
0.0
 11
0.0
 21
53.249131
 31
0.0
  0
TEXT
  5
41
  8
DIMENSIONS
 10
-261.201156
 20
724.407732
 30
0.0
 40
25.0
  1
1608
 50
90.0
 72
     4
 11
-273.701156
 21
766.074399
 31
0.0
  0
LINE
  5
42
  8
DIMENSIONS
 10
0.0
 20
1623.0
 30
0.0
 11
0.0
 21
2094.931016
 31
0.0
  0
LINE
  5
43
  8
DIMENSIONS
 10
-9.693366
 20
1608.0
 30
0.0
 11
-251.201156
 21
1608.0
 31
0.0
  0
SOLID
  5
44
  8
DIMENSIONS
 10
-240.367823
 20
1583.0
 30
0.0
 11
-232.03449
 21
1583.0
 31
0.0
 12
-236.201156
 22
1608.0
 32
0.0
 13
-236.201156
 23
1608.0
 33
0.0
  0
SOLID
  5
45
  8
DIMENSIONS
 10
25.0
 20
2084.097682
 30
0.0
 11
25.0
 21
2075.764349
 31
0.0
 12
0.0
 22
2079.931016
 32
0.0
 13
0.0
 23
2079.931016
 33
0.0
  0
LINE
  5
46
  8
DETAIL
 10
772.0
 20
1608.0
 30
0.0
 11
772.0
 21
470.0
 31
0.0
  0
LINE
  5
47
  8
DETAIL
 10
795.0
 20
1608.0
 30
0.0
 11
795.0
 21
53.249131
 31
0.0
  0
LINE
  5
48
  8
DETAIL
 10
795.0
 20
53.249131
 30
0.0
 11
772.0
 21
53.249131
 31
0.0
  0
LINE
  5
49
  8
DETAIL
 10
740.216707
 20
115.0
 30
0.0
 11
740.216707
 21
470.0
 31
0.0
  0
LINE
  5
4A
  8
DETAIL
 10
772.0
 20
115.0
 30
0.0
 11
772.0
 21
0.0
 31
0.0
  0
SOLID
  5
4B
  8
DIMENSIONS
 10
770.0
 20
2084.097682
 30
0.0
 11
770.0
 21
2075.764349
 31
0.0
 12
795.0
 22
2079.931016
 32
0.0
 13
795.0
 23
2079.931016
 33
0.0
  0
TEXT
  5
4C
  8
DIMENSIONS
 10
365.357143
 20
2104.931016
 30
0.0
 40
25.0
  1
795
 72
     1
 11
397.5
 21
2117.431016
 31
0.0
 73
     2
  0
LINE
  5
4D
  8
DIMENSIONS
 10
795.0
 20
1623.0
 30
0.0
 11
795.0
 21
2094.931016
 31
0.0
  0
LINE
  5
4E
  8
PLANNING
 10
1295.0
 20
2608.0
 30
0.0
 11
-500.0
 21
2608.0
 31
0.0
  0
POLYLINE
  5
4F
  8
ORIGIN
 66
     1
 10
0.0
 20
0.0
 30
0.0
  0
VERTEX
  5
25D
  8
ORIGIN
 10
0.0
 20
0.0
 30
0.0
  0
VERTEX
  5
25E
  8
ORIGIN
 10
-100.0
 20
-100.0
 30
0.0
  0
VERTEX
  5
25F
  8
ORIGIN
 10
-100.0
 20
100.0
 30
0.0
  0
VERTEX
  5
260
  8
ORIGIN
 10
100.0
 20
-100.0
 30
0.0
  0
VERTEX
  5
261
  8
ORIGIN
 10
100.0
 20
100.0
 30
0.0
  0
VERTEX
  5
262
  8
ORIGIN
 10
0.0
 20
0.0
 30
0.0
  0
SEQEND
  5
263
  8
ORIGIN
  0
LINE
  5
57
  8
CENTER
 10
397.5
 20
1383.619858
 30
0.0
 11
397.5
 21
1894.113127
 31
0.0
  0
LINE
  5
58
  8
DETAIL
 10
372.1
 20
1608.0
 30
0.0
 11
372.1
 21
1738.0
 31
0.0
  0
LINE
  5
59
  8
DETAIL
 10
422.9
 20
1608.0
 30
0.0
 11
422.9
 21
1738.0
 31
0.0
  0
LINE
  5
5A
  8
DETAIL
 10
297.5
 20
1608.0
 30
0.0
 11
297.5
 21
1738.0
 31
0.0
  0
LINE
  5
5C
  8
DETAIL
 10
497.5
 20
1738.0
 30
0.0
 11
297.5
 21
1738.0
 31
0.0
  0
LINE
  5
5D
  8
DIMENSIONS
 10
397.5
 20
1909.113127
 30
0.0
 11
397.5
 21
1992.456068
 31
0.0
  0
CIRCLE
  5
66
  8
ORIGIN
 10
381.5
 20
-10.0
 30
0.0
 40
50.0
  0
LINE
  5
69
  8
CENTER
 10
381.5
 20
-103.041326
 30
0.0
 11
381.5
 21
83.041326
 31
0.0
  0
LINE
  5
70
  8
DETAIL
 10
526.801796
 20
-10.0
 30
0.0
 11
236.198204
 21
-10.0
 31
0.0
  0
LINE
  5
71
  8
DETAIL
 10
526.801796
 20
0.0
 30
0.0
 11
526.801796
 21
-10.0
 31
0.0
  0
LINE
  5
72
  8
DETAIL
 10
236.198204
 20
0.0
 30
0.0
 11
236.198204
 21
-10.0
 31
0.0
  0
TEXT
  5
7F
  8
STELTXT
 10
908.249046
 20
397.584641
 30
0.0
 40
25.0
  1
DELUXE CONTROL PANEL (Optional)
  0
LINE
  5
80
  8
STELTXT
 10
816.483461
 20
409.233753
 30
0.0
 11
882.661477
 21
409.233753
 31
0.0
  0
LINE
  5
81
  8
STELTXT
 10
448.835477
 20
362.801483
 30
0.0
 11
816.483461
 21
409.233753
 31
0.0
  0
SOLID
  5
82
  8
STELTXT
 10
449.326057
 20
358.663798
 30
0.0
 11
448.344896
 21
366.939169
 31
0.0
 12
424.009363
 22
359.857998
 32
0.0
 13
424.009363
 23
359.857998
 33
0.0
  0
LINE
  5
83
  8
STELTXT
 10
816.483461
 20
44.871931
 30
0.0
 11
882.661477
 21
44.871931
 31
0.0
  0
TEXT
  5
84
  8
STELTXT
 10
908.845973
 20
32.615488
 30
0.0
 40
25.0
  1
BURNER PLATE
  0
SOLID
  5
85
  8
STELTXT
 10
449.326057
 20
-5.698025
 30
0.0
 11
448.344896
 21
2.577347
 31
0.0
 12
424.009363
 22
-4.503824
 32
0.0
 13
424.009363
 23
-4.503824
 33
0.0
  0
LINE
  5
86
  8
STELTXT
 10
448.835477
 20
-1.560339
 30
0.0
 11
816.483461
 21
44.871931
 31
0.0
  0
LINE
  5
87
  8
DIMENSIONS
  6
CONTINUOUS
 10
45.0
 20
-236.904517
 30
0.0
 11
750.0
 21
-236.904517
 31
0.0
  0
SOLID
  5
88
  8
DIMENSIONS
  6
CONTINUOUS
 10
45.0
 20
-232.73785
 30
0.0
 11
45.0
 21
-241.071184
 31
0.0
 12
20.0
 22
-236.904517
 32
0.0
 13
20.0
 23
-236.904517
 33
0.0
  0
LINE
  5
89
  8
DIMENSIONS
  6
CONTINUOUS
 10
20.0
 20
100.0
 30
0.0
 11
20.0
 21
-251.904517
 31
0.0
  0
TEXT
  5
8A
  8
DIMENSIONS
  6
CONTINUOUS
 10
365.357143
 20
-211.904517
 30
0.0
 40
25.0
  1
755
  0
LINE
  5
8B
  8
DIMENSIONS
  6
CONTINUOUS
 10
775.0
 20
100.0
 30
0.0
 11
775.0
 21
-251.904517
 31
0.0
  0
SOLID
  5
8C
  8
DIMENSIONS
  6
CONTINUOUS
 10
750.0
 20
-232.73785
 30
0.0
 11
750.0
 21
-241.071184
 31
0.0
 12
775.0
 22
-236.904517
 32
0.0
 13
775.0
 23
-236.904517
 33
0.0
  0
LINE
  5
8D
  8
DIMENSIONS
  6
CONTINUOUS
 10
292.5
 20
1738.0
 30
0.0
 11
-251.146628
 21
1738.0
 31
0.0
  0
TEXT
  5
8E
  8
DIMENSIONS
  6
CONTINUOUS
 10
-261.146628
 20
1645.738095
 30
0.0
 40
25.0
  1
130
 50
90.0
  0
LINE
  5
8F
  8
DIMENSIONS
  6
CONTINUOUS
 10
-236.146628
 20
1713.0
 30
0.0
 11
-236.146628
 21
1633.0
 31
0.0
  0
SOLID
  5
90
  8
DIMENSIONS
  6
CONTINUOUS
 10
-240.313295
 20
1633.0
 30
0.0
 11
-231.979962
 21
1633.0
 31
0.0
 12
-236.146628
 22
1608.0
 32
0.0
 13
-236.146628
 23
1608.0
 33
0.0
  0
SOLID
  5
91
  8
DIMENSIONS
  6
CONTINUOUS
 10
-240.313295
 20
1713.0
 30
0.0
 11
-231.979962
 21
1713.0
 31
0.0
 12
-236.146628
 22
1738.0
 32
0.0
 13
-236.146628
 23
1738.0
 33
0.0
  0
LINE
  5
92
  8
STELTXT
 10
439.285021
 20
1731.038008
 30
0.0
 11
865.569454
 21
1955.242129
 31
0.0
  0
LINE
  5
93
  8
STELTXT
 10
521.04675
 20
1664.107758
 30
0.0
 11
873.050456
 21
1704.358782
 31
0.0
  0
TEXT
  5
94
  8
STELTXT
 10
909.877685
 20
1845.124869
 30
0.0
 40
25.0
  1
TAPPING (THREADED)
  0
TEXT
  5
95
  8
STELTXT
 10
912.089057
 20
1994.065622
 30
0.0
 40
25.0
  1
TAPPING (THREADED)
  0
TEXT
  5
96
  8
STELTXT
 10
912.089057
 20
2034.065622
 30
0.0
 40
25.0
  1
%%C2 " WATER FLOW
  0
TEXT
  5
97
  8
STELTXT
 10
909.877685
 20
1885.124869
 30
0.0
 40
25.0
  1
%%C2 " WATER RETURN
  0
TEXT
  5
98
  8
STELTXT
 10
908.249046
 20
1691.586142
 30
0.0
 40
25.0
  1
FLUE OUTLET %%C200mm
  0
TEXT
  5
99
  8
STELTXT
 10
912.089057
 20
1936.579168
 30
0.0
 40
25.0
  1
ALSO
  0
LINE
  5
9A
  8
STELTXT
 10
865.569454
 20
1955.242129
 30
0.0
 11
882.661477
 21
1955.242129
 31
0.0
  0
LINE
  5
9B
  8
STELTXT
 10
873.050456
 20
1704.358782
 30
0.0
 11
882.661477
 21
1704.358782
 31
0.0
  0
SOLID
  5
9C
  8
STELTXT
 10
441.190447
 20
1727.332543
 30
0.0
 11
437.379596
 21
1734.743472
 31
0.0
 12
417.052235
 22
1719.605457
 32
0.0
 13
417.052235
 23
1719.605457
 33
0.0
  0
SOLID
  5
9D
  8
STELTXT
 10
521.471847
 20
1659.962832
 30
0.0
 11
520.621654
 21
1668.252683
 31
0.0
 12
496.1772
 22
1661.557178
 32
0.0
 13
496.1772
 23
1661.557178
 33
0.0
  0
LINE
  5
9E
  8
DIMENSIONS
  6
CONTINUOUS
 10
-84.598021
 20
445.0
 30
0.0
 11
-84.598021
 21
140.0
 31
0.0
  0
LINE
  5
9F
  8
DIMENSIONS
  6
CONTINUOUS
 10
5.0
 20
470.0
 30
0.0
 11
-99.598021
 21
470.0
 31
0.0
  0
SOLID
  5
A0
  8
DIMENSIONS
  6
CONTINUOUS
 10
-88.764687
 20
445.0
 30
0.0
 11
-80.431354
 21
445.0
 31
0.0
 12
-84.598021
 22
470.0
 32
0.0
 13
-84.598021
 23
470.0
 33
0.0
  0
LINE
  5
A1
  8
DIMENSIONS
  6
CONTINUOUS
 10
5.0
 20
115.0
 30
0.0
 11
-99.598021
 21
115.0
 31
0.0
  0
SOLID
  5
A2
  8
DIMENSIONS
  6
CONTINUOUS
 10
-88.764687
 20
140.0
 30
0.0
 11
-80.431354
 21
140.0
 31
0.0
 12
-84.598021
 22
115.0
 32
0.0
 13
-84.598021
 23
115.0
 33
0.0
  0
TEXT
  5
A3
  8
DIMENSIONS
  6
CONTINUOUS
 10
-109.598021
 20
260.357143
 30
0.0
 40
25.0
  1
355
 50
90.0
  0
LINE
  5
A4
  8
DIMENSIONS
 10
770.0
 20
1977.456068
 30
0.0
 11
422.5
 21
1977.456068
 31
0.0
  0
TEXT
  5
A5
  8
DIMENSIONS
 10
585.535714
 20
2002.456068
 30
0.0
 40
25.0
  1
=
 72
     1
 11
596.25
 21
2014.956068
 31
0.0
 73
     2
  0
LINE
  5
A6
  8
DIMENSIONS
 10
25.0
 20
1977.456068
 30
0.0
 11
372.5
 21
1977.456068
 31
0.0
  0
SOLID
  5
A7
  8
DIMENSIONS
 10
25.0
 20
1981.622735
 30
0.0
 11
25.0
 21
1973.289401
 31
0.0
 12
0.0
 22
1977.456068
 32
0.0
 13
0.0
 23
1977.456068
 33
0.0
  0
TEXT
  5
A8
  8
DIMENSIONS
 10
188.035714
 20
2002.456068
 30
0.0
 40
25.0
  1
=
 72
     1
 11
198.75
 21
2014.956068
 31
0.0
 73
     2
  0
SOLID
  5
A9
  8
DIMENSIONS
 10
372.5
 20
1981.622735
 30
0.0
 11
372.5
 21
1973.289401
 31
0.0
 12
397.5
 22
1977.456068
 32
0.0
 13
397.5
 23
1977.456068
 33
0.0
  0
SOLID
  5
AA
  8
DIMENSIONS
 10
422.5
 20
1981.622735
 30
0.0
 11
422.5
 21
1973.289401
 31
0.0
 12
397.5
 22
1977.456068
 32
0.0
 13
397.5
 23
1977.456068
 33
0.0
  0
SOLID
  5
AB
  8
DIMENSIONS
 10
770.0
 20
1981.622735
 30
0.0
 11
770.0
 21
1973.289401
 31
0.0
 12
795.0
 22
1977.456068
 32
0.0
 13
795.0
 23
1977.456068
 33
0.0
  0
LINE
  5
104
  8
DETAIL
 10
497.5
 20
1608.0
 30
0.0
 11
497.5
 21
1738.0
 31
0.0
  0
ATTDEF
  5
133
  8
STELATT
 10
315.287311
 20
-479.619562
 30
0.0
 40
40.0
  1
9
 72
     4
 11
408.620644
 21
-459.619562
 31
0.0
  3

  2
MODEL
 70
     2
  0
ATTDEF
  5
134
  8
STELATT
 10
340.049215
 20
-409.619562
 30
0.0
 40
40.0
  1
HARRIER GT
 72
     4
 11
408.620644
 21
-389.619562
 31
0.0
  3

  2
TYPE
 70
     2
  0
ATTDEF
  5
135
  8
STELATT
 10
175.287311
 20
-339.619562
 30
0.0
 40
40.0
  1
IDEAL
 72
     4
 11
408.620644
 21
-319.619562
 31
0.0
  3

  2
MANUFACTURER
 70
     2
  0
TEXT
  5
167
  8
STELTXT
 10
961.483442
 20
2038.392853
 30
0.0
 40
15.0
  1
/
  0
TEXT
  5
168
  8
STELTXT
 10
956.396834
 20
2042.800683
 30
0.0
 40
15.0
  1
1
  0
TEXT
  5
169
  8
STELTXT
 10
972.670232
 20
2033.986533
 30
0.0
 40
15.0
  1
2
  0
TEXT
  5
16A
  8
STELTXT
 10
968.449591
 20
1885.334683
 30
0.0
 40
15.0
  1
2
  0
TEXT
  5
16B
  8
STELTXT
 10
957.262801
 20
1889.741004
 30
0.0
 40
15.0
  1
/
  0
TEXT
  5
16C
  8
STELTXT
 10
952.176193
 20
1894.148833
 30
0.0
 40
15.0
  1
1
  0
ENDSEC
  0
EOF
