  0
SECTION
  2
HEADER
  9
$ACADVER
  1
AC1009
  9
$INSBASE
 10
0.0
 20
0.0
 30
0.0
  9
$EXTMIN
 10
-100.016773
 20
-444.356899
 30
0.0
  9
$EXTMAX
 10
1000.016788
 20
1690.11307
 30
0.0
  9
$LIMMIN
 10
0.0
 20
0.0
  9
$LIMMAX
 10
420.0
 20
297.0
  9
$ORTHOMODE
 70
     1
  9
$REGENMODE
 70
     1
  9
$FILLMODE
 70
     1
  9
$QTEXTMODE
 70
     0
  9
$MIRRTEXT
 70
     0
  9
$DRAGMODE
 70
     2
  9
$LTSCALE
 40
25.0
  9
$OSMODE
 70
     0
  9
$ATTMODE
 70
     1
  9
$TEXTSIZE
 40
3.0
  9
$TRACEWID
 40
10.0
  9
$TEXTSTYLE
  7
STANDARD
  9
$CLAYER
  8
0
  9
$CELTYPE
  6
BYLAYER
  9
$CECOLOR
 62
   256
  9
$DIMSCALE
 40
1.0
  9
$DIMASZ
 40
25.0
  9
$DIMEXO
 40
15.0
  9
$DIMDLI
 40
10.0
  9
$DIMRND
 40
0.0
  9
$DIMDLE
 40
1.25
  9
$DIMEXE
 40
15.0
  9
$DIMTP
 40
0.0
  9
$DIMTM
 40
0.0
  9
$DIMTXT
 40
25.0
  9
$DIMCEN
 40
-3.0
  9
$DIMTSZ
 40
0.0
  9
$DIMTOL
 70
     0
  9
$DIMLIM
 70
     0
  9
$DIMTIH
 70
     0
  9
$DIMTOH
 70
     0
  9
$DIMSE1
 70
     0
  9
$DIMSE2
 70
     0
  9
$DIMTAD
 70
     0
  9
$DIMZIN
 70
     1
  9
$DIMBLK
  1

  9
$DIMASO
 70
     0
  9
$DIMSHO
 70
     0
  9
$DIMPOST
  1

  9
$DIMAPOST
  1

  9
$DIMALT
 70
     0
  9
$DIMALTD
 70
     2
  9
$DIMALTF
 40
0.039
  9
$DIMLFAC
 40
1.0
  9
$DIMTOFL
 70
     0
  9
$DIMTVP
 40
1.5
  9
$DIMTIX
 70
     0
  9
$DIMSOXD
 70
     0
  9
$DIMSAH
 70
     0
  9
$DIMBLK1
  1

  9
$DIMBLK2
  1

  9
$DIMSTYLE
  2
STANDARD
  9
$DIMCLRD
 70
     0
  9
$DIMCLRE
 70
     0
  9
$DIMCLRT
 70
     0
  9
$DIMTFAC
 40
1.0
  9
$DIMGAP
 40
0.09
  9
$LUNITS
 70
     2
  9
$LUPREC
 70
     2
  9
$SKETCHINC
 40
1.0
  9
$FILLETRAD
 40
0.0
  9
$AUNITS
 70
     0
  9
$AUPREC
 70
     4
  9
$MENU
  1
acad
  9
$ELEVATION
 40
0.0
  9
$PELEVATION
 40
0.0
  9
$THICKNESS
 40
0.0
  9
$LIMCHECK
 70
     0
  9
$BLIPMODE
 70
     0
  9
$CHAMFERA
 40
66.0
  9
$CHAMFERB
 40
66.0
  9
$SKPOLY
 70
     1
  9
$TDCREATE
 40
2450092.729248
  9
$TDUPDATE
 40
2453073.534783
  9
$TDINDWG
 40
0.00299
  9
$TDUSRTIMER
 40
0.00299
  9
$USRTIMER
 70
     1
  9
$ANGBASE
 50
0.0
  9
$ANGDIR
 70
     0
  9
$PDMODE
 70
     3
  9
$PDSIZE
 40
0.0
  9
$PLINEWID
 40
0.0
  9
$COORDS
 70
     1
  9
$SPLFRAME
 70
     0
  9
$SPLINETYPE
 70
     6
  9
$SPLINESEGS
 70
     6
  9
$ATTDIA
 70
     0
  9
$ATTREQ
 70
     1
  9
$HANDLING
 70
 22529
  9
$HANDSEED
  5
200
  9
$SURFTAB1
 70
    12
  9
$SURFTAB2
 70
    12
  9
$SURFTYPE
 70
     6
  9
$SURFU
 70
    12
  9
$SURFV
 70
    12
  9
$UCSNAME
  2

  9
$UCSORG
 10
0.0
 20
0.0
 30
0.0
  9
$UCSXDIR
 10
1.0
 20
0.0
 30
0.0
  9
$UCSYDIR
 10
0.0
 20
1.0
 30
0.0
  9
$PUCSNAME
  2

  9
$PUCSORG
 10
0.0
 20
0.0
 30
0.0
  9
$PUCSXDIR
 10
1.0
 20
0.0
 30
0.0
  9
$PUCSYDIR
 10
0.0
 20
1.0
 30
0.0
  9
$USERI1
 70
     0
  9
$USERI2
 70
     0
  9
$USERI3
 70
     0
  9
$USERI4
 70
     0
  9
$USERI5
 70
     0
  9
$USERR1
 40
0.0
  9
$USERR2
 40
0.0
  9
$USERR3
 40
0.0
  9
$USERR4
 40
0.0
  9
$USERR5
 40
0.0
  9
$WORLDVIEW
 70
     0
  9
$SHADEDGE
 70
     3
  9
$SHADEDIF
 70
    70
  9
$TILEMODE
 70
     1
  9
$MAXACTVP
 70
    16
  9
$PLIMCHECK
 70
     0
  9
$PEXTMIN
 10
1.000000E+020
 20
1.000000E+020
 30
1.000000E+020
  9
$PEXTMAX
 10
-1.000000E+020
 20
-1.000000E+020
 30
-1.000000E+020
  9
$PLIMMIN
 10
0.0
 20
0.0
  9
$PLIMMAX
 10
12.0
 20
9.0
  9
$UNITMODE
 70
     0
  9
$VISRETAIN
 70
     0
  9
$PLINEGEN
 70
     0
  9
$PSLTSCALE
 70
     0
  0
ENDSEC
  0
SECTION
  2
TABLES
  0
TABLE
  2
VPORT
 70
     2
  0
VPORT
  2
*ACTIVE
 70
     0
 10
0.0
 20
0.0
 11
1.0
 21
1.0
 12
450.000008
 22
622.878085
 13
0.0
 23
0.0
 14
10.0
 24
10.0
 15
0.0
 25
0.0
 16
0.0
 26
0.0
 36
1.0
 17
0.0
 27
0.0
 37
0.0
 40
2159.051198
 41
1.825
 42
50.0
 43
0.0
 44
0.0
 50
0.0
 51
0.0
 71
     0
 72
 20000
 73
     1
 74
     2
 75
     0
 76
     0
 77
     0
 78
     2
  0
ENDTAB
  0
TABLE
  2
LTYPE
 70
     3
  0
LTYPE
  2
CONTINUOUS
 70
     0
  3
Solid line
 72
    65
 73
     0
 40
0.0
  0
LTYPE
  2
CENTER
 70
     0
  3
____ _ ____ _ ____ _ ____ _ ____ _ ____ _ ____
 72
    65
 73
     4
 40
2.0
 49
1.25
 49
-0.25
 49
0.25
 49
-0.25
  0
LTYPE
  2
DASHED
 70
     0
  3
__ __ __ __ __ __ __ __ __ __ __ __ __ __ __
 72
    65
 73
     2
 40
0.75
 49
0.5
 49
-0.25
  0
ENDTAB
  0
TABLE
  2
LAYER
 70
     8
  0
LAYER
  2
0
 70
     0
 62
     7
  6
CONTINUOUS
  0
LAYER
  2
DETAIL
 70
     0
 62
     2
  6
CONTINUOUS
  0
LAYER
  2
DIMENSIONS
 70
     1
 62
     7
  6
CONTINUOUS
  0
LAYER
  2
CENTER
 70
     1
 62
     4
  6
CENTER
  0
LAYER
  2
ORIGIN
 70
     0
 62
     6
  6
CONTINUOUS
  0
LAYER
  2
PLANNING
 70
     1
 62
     1
  6
DASHED
  0
LAYER
  2
STELTXT
 70
     1
 62
     4
  6
CONTINUOUS
  0
LAYER
  2
STELATT
 70
     0
 62
     7
  6
CONTINUOUS
  0
ENDTAB
  0
TABLE
  2
STYLE
 70
     1
  0
STYLE
  2
STANDARD
 70
     0
 40
0.0
 41
1.0
 50
0.0
 71
     0
 42
3.0
  3
simplex
  4

  0
ENDTAB
  0
TABLE
  2
VIEW
 70
     0
  0
ENDTAB
  0
TABLE
  2
UCS
 70
     0
  0
ENDTAB
  0
TABLE
  2
APPID
 70
     1
  0
APPID
  2
ACAD
 70
     0
  0
ENDTAB
  0
TABLE
  2
DIMSTYLE
 70
     1
  0
DIMSTYLE
  2
STANDARD
 70
     0
  3

  4

  5

  6

  7

 40
1.0
 41
0.18
 42
0.0625
 43
0.38
 44
0.18
 45
0.0
 46
0.0
 47
0.0
 48
0.0
140
0.18
141
0.09
142
0.0
143
25.4
144
1.0
145
0.0
146
1.0
147
0.09
 71
     0
 72
     0
 73
     1
 74
     1
 75
     0
 76
     0
 77
     0
 78
     0
170
     0
171
     2
172
     0
173
     0
174
     0
175
     0
176
     0
177
     0
178
     0
  0
ENDTAB
  0
ENDSEC
  0
SECTION
  2
BLOCKS
  0
BLOCK
  8
0
  2
$MODEL_SPACE
 70
     0
 10
0.0
 20
0.0
 30
0.0
  3
$MODEL_SPACE
  1

  0
ENDBLK
  5
18F
  8
0
  0
BLOCK
 67
     1
  8
0
  2
$PAPER_SPACE
 70
     0
 10
0.0
 20
0.0
 30
0.0
  3
$PAPER_SPACE
  1

  0
ENDBLK
  5
18D
 67
     1
  8
0
  0
ENDSEC
  0
SECTION
  2
ENTITIES
  0
POLYLINE
  5
2A
  8
ORIGIN
 66
     1
 10
0.0
 20
0.0
 30
0.0
  0
VERTEX
  5
1D3
  8
ORIGIN
 10
0.0
 20
0.0
 30
0.0
  0
VERTEX
  5
1D4
  8
ORIGIN
 10
-100.0
 20
-100.0
 30
0.0
  0
VERTEX
  5
1D5
  8
ORIGIN
 10
-100.0
 20
100.0
 30
0.0
  0
VERTEX
  5
1D6
  8
ORIGIN
 10
100.0
 20
-100.0
 30
0.0
  0
VERTEX
  5
1D7
  8
ORIGIN
 10
100.0
 20
100.0
 30
0.0
  0
VERTEX
  5
1D8
  8
ORIGIN
 10
0.0
 20
0.0
 30
0.0
  0
SEQEND
  5
1D9
  8
ORIGIN
  0
POLYLINE
  5
32
  8
ORIGIN
 66
     1
 10
0.0
 20
0.0
 30
0.0
  0
VERTEX
  5
1DA
  8
ORIGIN
 10
0.0
 20
0.0
 30
0.0
  0
VERTEX
  5
1DB
  8
ORIGIN
 10
-100.0
 20
-100.0
 30
0.0
  0
VERTEX
  5
1DC
  8
ORIGIN
 10
-100.0
 20
100.0
 30
0.0
  0
VERTEX
  5
1DD
  8
ORIGIN
 10
100.0
 20
-100.0
 30
0.0
  0
VERTEX
  5
1DE
  8
ORIGIN
 10
100.0
 20
100.0
 30
0.0
  0
VERTEX
  5
1DF
  8
ORIGIN
 10
0.0
 20
0.0
 30
0.0
  0
SEQEND
  5
1E0
  8
ORIGIN
  0
LINE
  5
3A
  8
DETAIL
 10
131.5
 20
1689.995751
 30
0.0
 11
868.5
 21
1689.995751
 31
0.0
  0
LINE
  5
3B
  8
DETAIL
 10
131.5
 20
1544.005903
 30
0.0
 11
131.5
 21
1689.995751
 31
0.0
  0
LINE
  5
3C
  8
DETAIL
 10
868.5
 20
1544.005903
 30
0.0
 11
868.5
 21
1689.995751
 31
0.0
  0
LINE
  5
3D
  8
DETAIL
 10
166.283293
 20
1499.995751
 30
0.0
 11
166.283293
 21
1689.995751
 31
0.0
  0
LINE
  5
3E
  8
DETAIL
 10
833.716707
 20
1500.0
 30
0.0
 11
833.716707
 21
1689.995751
 31
0.0
  0
LINE
  5
3F
  8
DETAIL
 10
868.5
 20
1544.005903
 30
0.0
 11
833.716707
 21
1515.676205
 31
0.0
  0
LINE
  5
40
  8
DETAIL
 10
131.5
 20
1544.005903
 30
0.0
 11
166.283293
 21
1515.676205
 31
0.0
  0
LINE
  5
41
  8
DETAIL
 10
833.716707
 20
1515.676205
 30
0.0
 11
166.283293
 21
1515.676205
 31
0.0
  0
LINE
  5
42
  8
DETAIL
 10
131.5
 20
1553.085255
 30
0.0
 11
166.283293
 21
1553.085255
 31
0.0
  0
LINE
  5
43
  8
DETAIL
 10
868.5
 20
1553.085255
 30
0.0
 11
833.716707
 21
1553.085255
 31
0.0
  0
CIRCLE
  5
44
  8
DETAIL
 10
585.114512
 20
1577.560366
 30
0.0
 40
20.0
  0
CIRCLE
  5
45
  8
DETAIL
 10
506.604499
 20
1577.560366
 30
0.0
 40
20.0
  0
TEXT
  5
46
  8
STELTXT
 10
1209.020193
 20
685.267727
 30
0.0
 40
25.0
  1
BURNER PLATE
  0
TEXT
  5
47
  8
STELTXT
 10
1209.640315
 20
1113.758487
 30
0.0
 40
25.0
  1
%%c300mm
  0
POLYLINE
  5
48
  8
DETAIL
 66
     1
 10
0.0
 20
0.0
 30
0.0
 70
     1
  0
VERTEX
  5
1E1
  8
DETAIL
 10
383.666334
 20
1566.211203
 30
0.0
  0
VERTEX
  5
1E2
  8
DETAIL
 10
383.666334
 20
1585.155641
 30
0.0
  0
VERTEX
  5
1E3
  8
DETAIL
 10
440.645908
 20
1585.155641
 30
0.0
  0
VERTEX
  5
1E4
  8
DETAIL
 10
440.645908
 20
1566.211203
 30
0.0
  0
SEQEND
  5
1E5
  8
DETAIL
  0
POLYLINE
  5
4E
  8
DETAIL
 66
     1
 10
0.0
 20
0.0
 30
0.0
 70
     1
  0
VERTEX
  5
1E6
  8
DETAIL
 10
786.238277
 20
1611.006217
 30
0.0
  0
VERTEX
  5
1E7
  8
DETAIL
 10
786.238277
 20
1629.386835
 30
0.0
  0
VERTEX
  5
1E8
  8
DETAIL
 10
807.696799
 20
1629.386835
 30
0.0
  0
VERTEX
  5
1E9
  8
DETAIL
 10
807.696799
 20
1611.006217
 30
0.0
  0
SEQEND
  5
1EA
  8
DETAIL
  0
LINE
  5
54
  8
DETAIL
 10
166.283293
 20
1674.457066
 30
0.0
 11
833.716707
 21
1674.457066
 31
0.0
  0
LINE
  5
55
  8
DETAIL
 10
166.283293
 20
1643.137471
 30
0.0
 11
833.716707
 21
1643.137471
 31
0.0
  0
LINE
  5
56
  8
DETAIL
 10
833.716707
 20
1546.9958
 30
0.0
 11
166.283293
 21
1546.9958
 31
0.0
  0
POLYLINE
  5
57
  8
DETAIL
 66
     1
 10
0.0
 20
0.0
 30
0.0
 70
     1
  0
VERTEX
  5
1EB
  8
DETAIL
 10
786.238277
 20
1585.183962
 30
0.0
  0
VERTEX
  5
1EC
  8
DETAIL
 10
786.238277
 20
1603.56458
 30
0.0
  0
VERTEX
  5
1ED
  8
DETAIL
 10
807.696799
 20
1603.56458
 30
0.0
  0
VERTEX
  5
1EE
  8
DETAIL
 10
807.696799
 20
1585.183962
 30
0.0
  0
SEQEND
  5
1EF
  8
DETAIL
  0
POLYLINE
  5
5D
  8
DETAIL
 66
     1
 10
0.0
 20
0.0
 30
0.0
 70
     1
  0
VERTEX
  5
1F0
  8
DETAIL
 10
786.238277
 20
1559.361707
 30
0.0
  0
VERTEX
  5
1F1
  8
DETAIL
 10
786.238277
 20
1577.742324
 30
0.0
  0
VERTEX
  5
1F2
  8
DETAIL
 10
807.696799
 20
1577.742324
 30
0.0
  0
VERTEX
  5
1F3
  8
DETAIL
 10
807.696799
 20
1559.361707
 30
0.0
  0
SEQEND
  5
1F4
  8
DETAIL
  0
CIRCLE
  5
63
  8
DETAIL
 10
506.604499
 20
1617.977787
 30
0.0
 40
7.0
  0
CIRCLE
  5
64
  8
DETAIL
 10
585.114512
 20
1617.977787
 30
0.0
 40
7.0
  0
CIRCLE
  5
65
  8
DETAIL
 10
336.944052
 20
1617.977787
 30
0.0
 40
7.0
  0
CIRCLE
  5
66
  8
DETAIL
 10
336.944052
 20
1574.192197
 30
0.0
 40
7.0
  0
CIRCLE
  5
67
  8
DETAIL
 10
500.0
 20
185.0
 30
0.0
 40
25.4
  0
LINE
  5
68
  8
DETAIL
 10
0.0
 20
35.0
 30
0.0
 11
0.0
 21
1500.0
 31
0.0
  0
LINE
  5
69
  8
DETAIL
 10
0.0
 20
1500.0
 30
0.0
 11
1000.0
 21
1500.0
 31
0.0
  0
LINE
  5
6A
  8
DETAIL
 10
1000.0
 20
1500.0
 30
0.0
 11
1000.0
 21
35.0
 31
0.0
  0
LINE
  5
6B
  8
DETAIL
 10
1000.0
 20
35.0
 30
0.0
 11
0.0
 21
35.0
 31
0.0
  0
LINE
  5
6C
  8
CENTER
 10
500.0
 20
128.218983
 30
0.0
 11
500.0
 21
237.781017
 31
0.0
  0
LINE
  5
6D
  8
PLANNING
 10
1500.0
 20
1689.995751
 30
0.0
 11
1500.0
 21
0.0
 31
0.0
  0
LINE
  5
6E
  8
PLANNING
 10
-500.0
 20
0.0
 30
0.0
 11
-500.0
 21
1689.995751
 31
0.0
  0
LINE
  5
6F
  8
PLANNING
 10
1500.0
 20
0.0
 30
0.0
 11
-500.0
 21
0.0
 31
0.0
  0
LINE
  5
70
  8
PLANNING
 10
-500.0
 20
1689.995751
 30
0.0
 11
1500.0
 21
1689.995751
 31
0.0
  0
LINE
  5
71
  8
DETAIL
 10
40.777578
 20
35.0
 30
0.0
 11
40.777578
 21
0.0
 31
0.0
  0
LINE
  5
72
  8
DETAIL
 10
40.777578
 20
0.0
 30
0.0
 11
85.844323
 21
0.0
 31
0.0
  0
LINE
  5
73
  8
DETAIL
 10
85.844323
 20
0.0
 30
0.0
 11
85.844323
 21
35.0
 31
0.0
  0
LINE
  5
74
  8
DETAIL
 10
959.222422
 20
0.0
 30
0.0
 11
914.155677
 21
0.0
 31
0.0
  0
LINE
  5
75
  8
DETAIL
 10
959.222422
 20
35.0
 30
0.0
 11
959.222422
 21
0.0
 31
0.0
  0
LINE
  5
76
  8
DETAIL
 10
914.155677
 20
0.0
 30
0.0
 11
914.155677
 21
35.0
 31
0.0
  0
LINE
  5
77
  8
CENTER
 10
700.934423
 20
546.0
 30
0.0
 11
299.065577
 21
546.0
 31
0.0
  0
POLYLINE
  5
78
  8
DETAIL
 66
     1
 10
0.0
 20
0.0
 30
0.0
 70
     1
  0
VERTEX
  5
1F5
  8
DETAIL
 10
347.594761
 20
482.871683
 30
0.0
  0
VERTEX
  5
1F6
  8
DETAIL
 10
436.871683
 20
393.594761
 30
0.0
  0
VERTEX
  5
1F7
  8
DETAIL
 10
563.128317
 20
393.594761
 30
0.0
  0
VERTEX
  5
1F8
  8
DETAIL
 10
652.405239
 20
482.871683
 30
0.0
  0
VERTEX
  5
1F9
  8
DETAIL
 10
652.405239
 20
609.128317
 30
0.0
  0
VERTEX
  5
1FA
  8
DETAIL
 10
563.128317
 20
698.405239
 30
0.0
  0
VERTEX
  5
1FB
  8
DETAIL
 10
436.871683
 20
698.405239
 30
0.0
  0
VERTEX
  5
1FC
  8
DETAIL
 10
347.594761
 20
609.128317
 30
0.0
  0
SEQEND
  5
1FD
  8
DETAIL
  0
LINE
  5
82
  8
DETAIL
 10
1000.0
 20
717.782424
 30
0.0
 11
0.0
 21
717.782424
 31
0.0
  0
LINE
  5
83
  8
DETAIL
 10
667.101
 20
717.782424
 30
0.0
 11
667.101
 21
35.0
 31
0.0
  0
LINE
  5
84
  8
DETAIL
 10
332.899
 20
35.0
 30
0.0
 11
332.899
 21
717.782424
 31
0.0
  0
LINE
  5
85
  8
CENTER
 10
554.781017
 20
183.0
 30
0.0
 11
445.218983
 21
183.0
 31
0.0
  0
LINE
  5
86
  8
CENTER
 10
500.0
 20
348.552085
 30
0.0
 11
500.0
 21
746.934423
 31
0.0
  0
LINE
  5
87
  8
CENTER
 10
569.232373
 20
1447.0
 30
0.0
 11
430.767627
 21
1447.0
 31
0.0
  0
LINE
  5
88
  8
CENTER
 10
500.0
 20
833.768761
 30
0.0
 11
500.0
 21
1192.231239
 31
0.0
  0
LINE
  5
89
  8
CENTER
 10
679.231239
 20
1013.0
 30
0.0
 11
320.768761
 21
1013.0
 31
0.0
  0
CIRCLE
  5
8A
  8
DETAIL
  6
DASHED
 10
500.0
 20
1013.0
 30
0.0
 40
150.0
  0
LINE
  5
8B
  8
DIMENSIONS
 10
0.0
 20
1515.0
 30
0.0
 11
0.0
 21
2003.006885
 31
0.0
  0
LINE
  5
8C
  8
DIMENSIONS
 10
1000.0
 20
1515.0
 30
0.0
 11
1000.0
 21
2003.006885
 31
0.0
  0
LINE
  5
8D
  8
DIMENSIONS
 10
25.0
 20
1988.006885
 30
0.0
 11
975.0
 21
1988.006885
 31
0.0
  0
SOLID
  5
8E
  8
DIMENSIONS
 10
25.0
 20
1992.173552
 30
0.0
 11
25.0
 21
1983.840219
 31
0.0
 12
0.0
 22
1988.006885
 32
0.0
 13
0.0
 23
1988.006885
 33
0.0
  0
SOLID
  5
8F
  8
DIMENSIONS
 10
975.0
 20
1992.173552
 30
0.0
 11
975.0
 21
1983.840219
 31
0.0
 12
1000.0
 22
1988.006885
 32
0.0
 13
1000.0
 23
1988.006885
 33
0.0
  0
TEXT
  5
90
  8
DIMENSIONS
 10
458.333333
 20
2013.006885
 30
0.0
 40
25.0
  1
1000
 72
     1
 11
500.0
 21
2025.506885
 31
0.0
 73
     2
  0
LINE
  5
91
  8
DIMENSIONS
 10
1015.0
 20
1500.0
 30
0.0
 11
1154.408579
 21
1500.0
 31
0.0
  0
LINE
  5
92
  8
DIMENSIONS
 10
1015.0
 20
0.0
 30
0.0
 11
1154.408579
 21
0.0
 31
0.0
  0
LINE
  5
93
  8
DIMENSIONS
 10
1139.408579
 20
1475.0
 30
0.0
 11
1139.408579
 21
25.0
 31
0.0
  0
SOLID
  5
94
  8
DIMENSIONS
 10
1135.241913
 20
1475.0
 30
0.0
 11
1143.575246
 21
1475.0
 31
0.0
 12
1139.408579
 22
1500.0
 32
0.0
 13
1139.408579
 23
1500.0
 33
0.0
  0
SOLID
  5
95
  8
DIMENSIONS
 10
1135.241913
 20
25.0
 30
0.0
 11
1143.575246
 21
25.0
 31
0.0
 12
1139.408579
 22
0.0
 32
0.0
 13
1139.408579
 23
0.0
 33
0.0
  0
TEXT
  5
96
  8
DIMENSIONS
 10
1114.408579
 20
708.333333
 30
0.0
 40
25.0
  1
1500
 50
90.0
 72
     1
 11
1101.908579
 21
750.0
 31
0.0
 73
     2
  0
LINE
  5
97
  8
DIMENSIONS
 10
284.065577
 20
546.0
 30
0.0
 11
-256.525464
 21
546.0
 31
0.0
  0
LINE
  5
98
  8
DIMENSIONS
 10
284.065577
 20
0.0
 30
0.0
 11
-256.525464
 21
0.0
 31
0.0
  0
LINE
  5
99
  8
DIMENSIONS
 10
-241.525464
 20
521.0
 30
0.0
 11
-241.525464
 21
25.0
 31
0.0
  0
SOLID
  5
9A
  8
DIMENSIONS
 10
-245.692131
 20
521.0
 30
0.0
 11
-237.358798
 21
521.0
 31
0.0
 12
-241.525464
 22
546.0
 32
0.0
 13
-241.525464
 23
546.0
 33
0.0
  0
SOLID
  5
9B
  8
DIMENSIONS
 10
-245.692131
 20
25.0
 30
0.0
 11
-237.358798
 21
25.0
 31
0.0
 12
-241.525464
 22
0.0
 32
0.0
 13
-241.525464
 23
0.0
 33
0.0
  0
TEXT
  5
9C
  8
DIMENSIONS
 10
-266.525464
 20
241.452381
 30
0.0
 40
25.0
  1
546
 50
90.0
 72
     1
 11
-279.025464
 21
273.0
 31
0.0
 73
     2
  0
LINE
  5
9D
  8
DIMENSIONS
 10
430.218983
 20
183.0
 30
0.0
 11
-158.572645
 21
183.0
 31
0.0
  0
LINE
  5
9E
  8
DIMENSIONS
 10
430.218983
 20
0.0
 30
0.0
 11
-158.572645
 21
0.0
 31
0.0
  0
LINE
  5
9F
  8
DIMENSIONS
 10
-143.572645
 20
158.0
 30
0.0
 11
-143.572645
 21
25.0
 31
0.0
  0
SOLID
  5
A0
  8
DIMENSIONS
 10
-147.739312
 20
158.0
 30
0.0
 11
-139.405979
 21
158.0
 31
0.0
 12
-143.572645
 22
183.0
 32
0.0
 13
-143.572645
 23
183.0
 33
0.0
  0
SOLID
  5
A1
  8
DIMENSIONS
 10
-147.739312
 20
25.0
 30
0.0
 11
-139.405979
 21
25.0
 31
0.0
 12
-143.572645
 22
0.0
 32
0.0
 13
-143.572645
 23
0.0
 33
0.0
  0
TEXT
  5
A2
  8
DIMENSIONS
 10
-168.572645
 20
61.738095
 30
0.0
 40
25.0
  1
183
 50
90.0
 72
     1
 11
-181.072645
 21
91.5
 31
0.0
 73
     2
  0
LINE
  5
A3
  8
DIMENSIONS
 10
500.0
 20
1704.995751
 30
0.0
 11
500.0
 21
1829.544281
 31
0.0
  0
LINE
  5
A4
  8
DIMENSIONS
 10
25.0
 20
1814.544281
 30
0.0
 11
475.0
 21
1814.544281
 31
0.0
  0
SOLID
  5
A5
  8
DIMENSIONS
 10
25.0
 20
1818.710948
 30
0.0
 11
25.0
 21
1810.377614
 31
0.0
 12
0.0
 22
1814.544281
 32
0.0
 13
0.0
 23
1814.544281
 33
0.0
  0
SOLID
  5
A6
  8
DIMENSIONS
 10
475.0
 20
1818.710948
 30
0.0
 11
475.0
 21
1810.377614
 31
0.0
 12
500.0
 22
1814.544281
 32
0.0
 13
500.0
 23
1814.544281
 33
0.0
  0
TEXT
  5
A7
  8
DIMENSIONS
 10
239.285714
 20
1839.544281
 30
0.0
 40
25.0
  1
=
 72
     1
 11
250.0
 21
1852.044281
 31
0.0
 73
     2
  0
LINE
  5
A8
  8
DIMENSIONS
 10
975.0
 20
1814.544281
 30
0.0
 11
525.0
 21
1814.544281
 31
0.0
  0
SOLID
  5
A9
  8
DIMENSIONS
 10
975.0
 20
1818.710948
 30
0.0
 11
975.0
 21
1810.377614
 31
0.0
 12
1000.0
 22
1814.544281
 32
0.0
 13
1000.0
 23
1814.544281
 33
0.0
  0
TEXT
  5
AA
  8
DIMENSIONS
 10
739.285714
 20
1839.544281
 30
0.0
 40
25.0
  1
=
 72
     1
 11
750.0
 21
1852.044281
 31
0.0
 73
     2
  0
SOLID
  5
AB
  8
DIMENSIONS
 10
525.0
 20
1818.710948
 30
0.0
 11
525.0
 21
1810.377614
 31
0.0
 12
500.0
 22
1814.544281
 32
0.0
 13
500.0
 23
1814.544281
 33
0.0
  0
LINE
  5
AC
  8
DIMENSIONS
 10
116.5
 20
1689.995751
 30
0.0
 11
39.978001
 21
1689.995751
 31
0.0
  0
LINE
  5
AD
  8
DIMENSIONS
 10
116.5
 20
1500.0
 30
0.0
 11
39.978001
 21
1500.0
 31
0.0
  0
LINE
  5
AE
  8
DIMENSIONS
 10
86.722003
 20
1664.995751
 30
0.0
 11
86.722003
 21
1525.0
 31
0.0
  0
SOLID
  5
AF
  8
DIMENSIONS
 10
82.555336
 20
1664.995751
 30
0.0
 11
90.888669
 21
1664.995751
 31
0.0
 12
86.722003
 22
1689.995751
 32
0.0
 13
86.722003
 23
1689.995751
 33
0.0
  0
SOLID
  5
B0
  8
DIMENSIONS
 10
82.555336
 20
1525.0
 30
0.0
 11
90.888669
 21
1525.0
 31
0.0
 12
86.722003
 22
1500.0
 32
0.0
 13
86.722003
 23
1500.0
 33
0.0
  0
TEXT
  5
B1
  8
DIMENSIONS
 10
61.722003
 20
1563.235971
 30
0.0
 40
25.0
  1
190
 50
90.0
 72
     1
 11
49.222003
 21
1592.997876
 31
0.0
 73
     2
  0
TEXT
  5
B2
  8
STELTXT
 10
1209.640315
 20
1163.660651
 30
0.0
 40
25.0
  1
FLUE OUTLET
  0
TEXT
  5
B3
  8
STELTXT
 10
1209.020193
 20
643.467086
 30
0.0
 40
25.0
  1
CENTRE LINE
  0
LINE
  5
B4
  8
CENTER
 10
500.0
 20
1377.767627
 30
0.0
 11
500.0
 21
1516.232373
 31
0.0
  0
LINE
  5
B5
  8
DIMENSIONS
 10
305.768761
 20
1013.0
 30
0.0
 11
-328.911079
 21
1013.0
 31
0.0
  0
LINE
  5
B6
  8
DIMENSIONS
 10
-256.525464
 20
0.0
 30
0.0
 11
-328.911079
 21
0.0
 31
0.0
  0
LINE
  5
B7
  8
DIMENSIONS
 10
-313.911079
 20
988.0
 30
0.0
 11
-313.911079
 21
25.0
 31
0.0
  0
SOLID
  5
B8
  8
DIMENSIONS
 10
-318.077746
 20
988.0
 30
0.0
 11
-309.744412
 21
988.0
 31
0.0
 12
-313.911079
 22
1013.0
 32
0.0
 13
-313.911079
 23
1013.0
 33
0.0
  0
SOLID
  5
B9
  8
DIMENSIONS
 10
-318.077746
 20
25.0
 30
0.0
 11
-309.744412
 21
25.0
 31
0.0
 12
-313.911079
 22
0.0
 32
0.0
 13
-313.911079
 23
0.0
 33
0.0
  0
TEXT
  5
BA
  8
DIMENSIONS
 10
-338.911079
 20
467.214286
 30
0.0
 40
25.0
  1
1013
 50
90.0
 72
     1
 11
-351.411079
 21
506.5
 31
0.0
 73
     2
  0
LINE
  5
BB
  8
DIMENSIONS
 10
415.767627
 20
1447.0
 30
0.0
 11
-421.873575
 21
1447.0
 31
0.0
  0
LINE
  5
BC
  8
DIMENSIONS
 10
-271.525464
 20
0.0
 30
0.0
 11
-421.873575
 21
0.0
 31
0.0
  0
LINE
  5
BD
  8
DIMENSIONS
 10
-406.873575
 20
1447.0
 30
0.0
 11
-406.873575
 21
0.0
 31
0.0
  0
SOLID
  5
BE
  8
DIMENSIONS
 10
-411.040242
 20
1422.0
 30
0.0
 11
-402.706909
 21
1422.0
 31
0.0
 12
-406.873575
 22
1447.0
 32
0.0
 13
-406.873575
 23
1447.0
 33
0.0
  0
SOLID
  5
BF
  8
DIMENSIONS
 10
-411.040242
 20
25.0
 30
0.0
 11
-402.706909
 21
25.0
 31
0.0
 12
-406.873575
 22
0.0
 32
0.0
 13
-406.873575
 23
0.0
 33
0.0
  0
TEXT
  5
C0
  8
DIMENSIONS
 10
-431.873575
 20
733.433853
 30
0.0
 40
25.0
  1
1447
 50
90.0
 72
     4
 11
-444.373575
 21
775.10052
 31
0.0
  0
SOLID
  5
C1
  8
STELTXT
 10
650.16287
 20
1054.875605
 30
0.0
 11
648.690791
 21
1063.077887
 31
0.0
 12
624.819985
 22
1054.560509
 32
0.0
 13
624.819985
 23
1054.560509
 33
0.0
  0
LINE
  5
C2
  8
STELTXT
 10
649.42683
 20
1058.976746
 30
0.0
 11
1154.037441
 21
1149.54016
 31
0.0
  0
SOLID
  5
C3
  8
STELTXT
 10
537.12201
 20
554.549382
 30
0.0
 11
535.57151
 21
562.737202
 31
0.0
 12
511.7833
 22
553.991794
 32
0.0
 13
511.7833
 23
553.991794
 33
0.0
  0
LINE
  5
C4
  8
STELTXT
 10
536.34676
 20
558.643292
 30
0.0
 11
1148.898657
 21
674.640151
 31
0.0
  0
LINE
  5
C5
  8
STELTXT
 10
1154.037441
 20
1149.54016
 30
0.0
 11
1195.139432
 21
1149.54016
 31
0.0
  0
LINE
  5
C6
  8
STELTXT
 10
1148.898657
 20
674.640151
 30
0.0
 11
1190.000648
 21
674.640151
 31
0.0
  0
TEXT
  5
C7
  8
STELTXT
 10
1204.151855
 20
231.49417
 30
0.0
 40
25.0
  1
%%C4" WATER RETURN TAPPING
  0
TEXT
  5
C8
  8
STELTXT
 10
1204.151855
 20
191.49417
 30
0.0
 40
25.0
  1
(TO BE WELDED)
  0
TEXT
  5
C9
  8
STELTXT
 10
1204.151855
 20
1500.505098
 30
0.0
 40
25.0
  1
(TO BE WELDED)
  0
TEXT
  5
CA
  8
STELTXT
 10
1204.151855
 20
1540.505098
 30
0.0
 40
25.0
  1
%%C4" WATER FLOW TAPPING
  0
SOLID
  5
CB
  8
STELTXT
 10
535.581227
 20
1455.271647
 30
0.0
 11
534.669369
 21
1463.554941
 31
0.0
 12
510.275416
 22
1456.677721
 32
0.0
 13
510.275416
 23
1456.677721
 33
0.0
  0
LINE
  5
CC
  8
STELTXT
 10
535.125298
 20
1459.413294
 30
0.0
 11
1157.07707
 21
1527.880204
 31
0.0
  0
SOLID
  5
CD
  8
STELTXT
 10
557.770027
 20
189.322234
 30
0.0
 11
557.336171
 21
197.644266
 31
0.0
 12
532.587004
 22
192.181683
 32
0.0
 13
532.587004
 23
192.181683
 33
0.0
  0
LINE
  5
CE
  8
STELTXT
 10
557.553099
 20
193.48325
 30
0.0
 11
1148.062529
 21
224.26851
 31
0.0
  0
LINE
  5
CF
  8
STELTXT
 10
1148.062529
 20
224.26851
 30
0.0
 11
1190.000648
 21
224.26851
 31
0.0
  0
TEXT
  5
D0
  8
STELTXT
 10
1204.151855
 20
132.044612
 30
0.0
 40
25.0
  1
DRAIN POINT (FRONT)
  0
LINE
  5
D1
  8
STELTXT
 10
1148.062529
 20
143.200918
 30
0.0
 11
1190.000648
 21
143.200918
 31
0.0
  0
SOLID
  5
D2
  8
STELTXT
 10
530.343564
 20
165.337077
 30
0.0
 11
530.698132
 21
173.662864
 31
0.0
 12
505.543487
 22
170.563674
 32
0.0
 13
505.543487
 23
170.563674
 33
0.0
  0
LINE
  5
D3
  8
STELTXT
 10
530.520848
 20
169.499971
 30
0.0
 11
1148.062529
 21
143.200918
 31
0.0
  0
SOLID
  5
D6
  8
STELTXT
 10
876.028976
 20
1608.318373
 30
0.0
 11
875.047814
 21
1616.593744
 31
0.0
 12
850.712282
 22
1609.512574
 32
0.0
 13
850.712282
 23
1609.512574
 33
0.0
  0
LINE
  5
D7
  8
STELTXT
 10
875.538395
 20
1612.456059
 30
0.0
 11
1097.373182
 21
1640.472784
 31
0.0
  0
TEXT
  5
D8
  8
STELTXT
 10
1209.08962
 20
1605.140418
 30
0.0
 40
25.0
  1
PANEL (Optional)
  0
TEXT
  5
D9
  8
STELTXT
 10
1209.08962
 20
1644.842753
 30
0.0
 40
25.0
  1
DELUXE CONTROL 
  0
LINE
  5
DA
  8
STELTXT
 10
1097.373182
 20
1640.472784
 30
0.0
 11
1176.945355
 21
1640.472784
 31
0.0
  0
ATTDEF
  5
163
  8
STELATT
 10
429.140429
 20
-444.324227
 30
0.0
 40
40.0
  1
14
 72
     4
 11
522.473762
 21
-424.324227
 31
0.0
  3

  2
MODEL
 70
     2
  0
ATTDEF
  5
164
  8
STELATT
 10
449.248634
 20
-374.324227
 30
0.0
 40
40.0
  1
VICEROY GT
 72
     4
 11
517.820063
 21
-354.324227
 31
0.0
  3

  2
TYPE
 70
     2
  0
ATTDEF
  5
165
  8
STELATT
 10
284.486729
 20
-304.324227
 30
0.0
 40
40.0
  1
IDEAL
 72
     4
 11
517.820063
 21
-284.324227
 31
0.0
  3

  2
MANUFACTURER
 70
     2
  0
ENDSEC
  0
EOF
