  0
SECTION
  2
HEADER
  9
$ACADVER
  1
AC1009
  9
$INSBASE
 10
0.0
 20
0.0
 30
0.0
  9
$EXTMIN
 10
-100.016773
 20
-501.374104
 30
0.0
  9
$EXTMAX
 10
1000.016788
 20
2769.799923
 30
0.0
  9
$LIMMIN
 10
0.0
 20
0.0
  9
$LIMMAX
 10
420.0
 20
297.0
  9
$ORTHOMODE
 70
     1
  9
$REGENMODE
 70
     1
  9
$FILLMODE
 70
     1
  9
$QTEXTMODE
 70
     0
  9
$MIRRTEXT
 70
     0
  9
$DRAGMODE
 70
     2
  9
$LTSCALE
 40
25.0
  9
$OSMODE
 70
     0
  9
$ATTMODE
 70
     1
  9
$TEXTSIZE
 40
3.0
  9
$TRACEWID
 40
10.0
  9
$TEXTSTYLE
  7
STANDARD
  9
$CLAYER
  8
0
  9
$CELTYPE
  6
BYLAYER
  9
$CECOLOR
 62
   256
  9
$DIMSCALE
 40
1.0
  9
$DIMASZ
 40
25.0
  9
$DIMEXO
 40
15.0
  9
$DIMDLI
 40
10.0
  9
$DIMRND
 40
0.0
  9
$DIMDLE
 40
1.25
  9
$DIMEXE
 40
15.0
  9
$DIMTP
 40
0.0
  9
$DIMTM
 40
0.0
  9
$DIMTXT
 40
25.0
  9
$DIMCEN
 40
-3.0
  9
$DIMTSZ
 40
0.0
  9
$DIMTOL
 70
     0
  9
$DIMLIM
 70
     0
  9
$DIMTIH
 70
     0
  9
$DIMTOH
 70
     0
  9
$DIMSE1
 70
     0
  9
$DIMSE2
 70
     0
  9
$DIMTAD
 70
     0
  9
$DIMZIN
 70
     1
  9
$DIMBLK
  1

  9
$DIMASO
 70
     0
  9
$DIMSHO
 70
     0
  9
$DIMPOST
  1

  9
$DIMAPOST
  1

  9
$DIMALT
 70
     0
  9
$DIMALTD
 70
     2
  9
$DIMALTF
 40
0.039
  9
$DIMLFAC
 40
1.0
  9
$DIMTOFL
 70
     0
  9
$DIMTVP
 40
1.5
  9
$DIMTIX
 70
     0
  9
$DIMSOXD
 70
     0
  9
$DIMSAH
 70
     0
  9
$DIMBLK1
  1

  9
$DIMBLK2
  1

  9
$DIMSTYLE
  2
STANDARD
  9
$DIMCLRD
 70
     0
  9
$DIMCLRE
 70
     0
  9
$DIMCLRT
 70
     0
  9
$DIMTFAC
 40
1.0
  9
$DIMGAP
 40
0.09
  9
$LUNITS
 70
     2
  9
$LUPREC
 70
     2
  9
$SKETCHINC
 40
1.0
  9
$FILLETRAD
 40
0.0
  9
$AUNITS
 70
     0
  9
$AUPREC
 70
     4
  9
$MENU
  1
acad
  9
$ELEVATION
 40
0.0
  9
$PELEVATION
 40
0.0
  9
$THICKNESS
 40
0.0
  9
$LIMCHECK
 70
     0
  9
$BLIPMODE
 70
     0
  9
$CHAMFERA
 40
66.0
  9
$CHAMFERB
 40
66.0
  9
$SKPOLY
 70
     1
  9
$TDCREATE
 40
2450092.70572
  9
$TDUPDATE
 40
2453073.534792
  9
$TDINDWG
 40
0.002216
  9
$TDUSRTIMER
 40
0.002216
  9
$USRTIMER
 70
     1
  9
$ANGBASE
 50
0.0
  9
$ANGDIR
 70
     0
  9
$PDMODE
 70
     3
  9
$PDSIZE
 40
0.0
  9
$PLINEWID
 40
0.0
  9
$COORDS
 70
     1
  9
$SPLFRAME
 70
     0
  9
$SPLINETYPE
 70
     6
  9
$SPLINESEGS
 70
     6
  9
$ATTDIA
 70
     0
  9
$ATTREQ
 70
     1
  9
$HANDLING
 70
 22529
  9
$HANDSEED
  5
1FE
  9
$SURFTAB1
 70
    12
  9
$SURFTAB2
 70
    12
  9
$SURFTYPE
 70
     6
  9
$SURFU
 70
    12
  9
$SURFV
 70
    12
  9
$UCSNAME
  2

  9
$UCSORG
 10
0.0
 20
0.0
 30
0.0
  9
$UCSXDIR
 10
1.0
 20
0.0
 30
0.0
  9
$UCSYDIR
 10
0.0
 20
1.0
 30
0.0
  9
$PUCSNAME
  2

  9
$PUCSORG
 10
0.0
 20
0.0
 30
0.0
  9
$PUCSXDIR
 10
1.0
 20
0.0
 30
0.0
  9
$PUCSYDIR
 10
0.0
 20
1.0
 30
0.0
  9
$USERI1
 70
     0
  9
$USERI2
 70
     0
  9
$USERI3
 70
     0
  9
$USERI4
 70
     0
  9
$USERI5
 70
     0
  9
$USERR1
 40
0.0
  9
$USERR2
 40
0.0
  9
$USERR3
 40
0.0
  9
$USERR4
 40
0.0
  9
$USERR5
 40
0.0
  9
$WORLDVIEW
 70
     0
  9
$SHADEDGE
 70
     3
  9
$SHADEDIF
 70
    70
  9
$TILEMODE
 70
     1
  9
$MAXACTVP
 70
    16
  9
$PLIMCHECK
 70
     0
  9
$PEXTMIN
 10
1.000000E+020
 20
1.000000E+020
 30
1.000000E+020
  9
$PEXTMAX
 10
-1.000000E+020
 20
-1.000000E+020
 30
-1.000000E+020
  9
$PLIMMIN
 10
0.0
 20
0.0
  9
$PLIMMAX
 10
12.0
 20
9.0
  9
$UNITMODE
 70
     0
  9
$VISRETAIN
 70
     0
  9
$PLINEGEN
 70
     0
  9
$PSLTSCALE
 70
     0
  0
ENDSEC
  0
SECTION
  2
TABLES
  0
TABLE
  2
VPORT
 70
     2
  0
VPORT
  2
*ACTIVE
 70
     0
 10
0.0
 20
0.0
 11
1.0
 21
1.0
 12
450.000008
 22
1134.212909
 13
0.0
 23
0.0
 14
10.0
 24
10.0
 15
0.0
 25
0.0
 16
0.0
 26
0.0
 36
1.0
 17
0.0
 27
0.0
 37
0.0
 40
3308.845897
 41
1.825
 42
50.0
 43
0.0
 44
0.0
 50
0.0
 51
0.0
 71
     0
 72
 20000
 73
     1
 74
     2
 75
     0
 76
     0
 77
     0
 78
     2
  0
ENDTAB
  0
TABLE
  2
LTYPE
 70
     3
  0
LTYPE
  2
CONTINUOUS
 70
     0
  3
Solid line
 72
    65
 73
     0
 40
0.0
  0
LTYPE
  2
CENTER
 70
     0
  3
____ _ ____ _ ____ _ ____ _ ____ _ ____ _ ____
 72
    65
 73
     4
 40
2.0
 49
1.25
 49
-0.25
 49
0.25
 49
-0.25
  0
LTYPE
  2
DASHED
 70
     0
  3
__ __ __ __ __ __ __ __ __ __ __ __ __ __ __
 72
    65
 73
     2
 40
0.75
 49
0.5
 49
-0.25
  0
ENDTAB
  0
TABLE
  2
LAYER
 70
     8
  0
LAYER
  2
0
 70
     0
 62
     7
  6
CONTINUOUS
  0
LAYER
  2
DETAIL
 70
     0
 62
     2
  6
CONTINUOUS
  0
LAYER
  2
DIMENSIONS
 70
     1
 62
     7
  6
CONTINUOUS
  0
LAYER
  2
CENTER
 70
     1
 62
     4
  6
CENTER
  0
LAYER
  2
ORIGIN
 70
     0
 62
     6
  6
CONTINUOUS
  0
LAYER
  2
PLANNING
 70
     1
 62
     1
  6
DASHED
  0
LAYER
  2
STELTXT
 70
     1
 62
     4
  6
CONTINUOUS
  0
LAYER
  2
STELATT
 70
     0
 62
     7
  6
CONTINUOUS
  0
ENDTAB
  0
TABLE
  2
STYLE
 70
     1
  0
STYLE
  2
STANDARD
 70
     0
 40
0.0
 41
1.0
 50
0.0
 71
     0
 42
3.0
  3
simplex
  4

  0
ENDTAB
  0
TABLE
  2
VIEW
 70
     0
  0
ENDTAB
  0
TABLE
  2
UCS
 70
     0
  0
ENDTAB
  0
TABLE
  2
APPID
 70
     1
  0
APPID
  2
ACAD
 70
     0
  0
ENDTAB
  0
TABLE
  2
DIMSTYLE
 70
     1
  0
DIMSTYLE
  2
STANDARD
 70
     0
  3

  4

  5

  6

  7

 40
1.0
 41
0.18
 42
0.0625
 43
0.38
 44
0.18
 45
0.0
 46
0.0
 47
0.0
 48
0.0
140
0.18
141
0.09
142
0.0
143
25.4
144
1.0
145
0.0
146
1.0
147
0.09
 71
     0
 72
     0
 73
     1
 74
     1
 75
     0
 76
     0
 77
     0
 78
     0
170
     0
171
     2
172
     0
173
     0
174
     0
175
     0
176
     0
177
     0
178
     0
  0
ENDTAB
  0
ENDSEC
  0
SECTION
  2
BLOCKS
  0
BLOCK
  8
0
  2
$MODEL_SPACE
 70
     0
 10
0.0
 20
0.0
 30
0.0
  3
$MODEL_SPACE
  1

  0
ENDBLK
  5
1B2
  8
0
  0
BLOCK
 67
     1
  8
0
  2
$PAPER_SPACE
 70
     0
 10
0.0
 20
0.0
 30
0.0
  3
$PAPER_SPACE
  1

  0
ENDBLK
  5
1B0
 67
     1
  8
0
  0
ENDSEC
  0
SECTION
  2
ENTITIES
  0
LINE
  5
2A
  8
PLANNING
 10
1500.0
 20
3465.0
 30
0.0
 11
1500.0
 21
-2500.0
 31
0.0
  0
LINE
  5
2B
  8
PLANNING
 10
-500.0
 20
-2500.0
 30
0.0
 11
-500.0
 21
3465.0
 31
0.0
  0
LINE
  5
2C
  8
PLANNING
 10
1500.0
 20
-2500.0
 30
0.0
 11
-500.0
 21
-2500.0
 31
0.0
  0
LINE
  5
2D
  8
DIMENSIONS
 10
156.5
 20
-257.64466
 30
0.0
 11
843.5
 21
-257.64466
 31
0.0
  0
LINE
  5
2E
  8
CENTER
 10
574.942474
 20
-22.0
 30
0.0
 11
425.057526
 21
-22.0
 31
0.0
  0
CIRCLE
  5
2F
  8
ORIGIN
 10
500.0
 20
-22.0
 30
0.0
 40
50.0
  0
LINE
  5
30
  8
PLANNING
 10
-500.0
 20
3465.0
 30
0.0
 11
1500.0
 21
3465.0
 31
0.0
  0
LINE
  5
31
  8
DETAIL
 10
659.141785
 20
-22.0
 30
0.0
 11
340.858215
 21
-22.0
 31
0.0
  0
LINE
  5
34
  8
DETAIL
 10
0.0
 20
2465.0
 30
0.0
 11
1000.0
 21
2465.0
 31
0.0
  0
TEXT
  5
35
  8
DIMENSIONS
 10
458.333333
 20
-537.694244
 30
0.0
 40
25.0
  1
1000
 72
     1
 11
500.0
 21
-525.194244
 31
0.0
 73
     2
  0
LINE
  5
36
  8
DIMENSIONS
 10
25.0
 20
-487.694244
 30
0.0
 11
975.0
 21
-487.694244
 31
0.0
  0
LINE
  5
37
  8
DETAIL
 10
1000.0
 20
553.774271
 30
0.0
 11
0.0
 21
553.774271
 31
0.0
  0
LINE
  5
38
  8
DETAIL
 10
1000.0
 20
32.0
 30
0.0
 11
0.0
 21
32.0
 31
0.0
  0
LINE
  5
39
  8
DETAIL
 10
1000.0
 20
0.0
 30
0.0
 11
0.0
 21
0.0
 31
0.0
  0
LINE
  5
3A
  8
DETAIL
 10
868.5
 20
463.0
 30
0.0
 11
131.5
 21
463.0
 31
0.0
  0
LINE
  5
3B
  8
DETAIL
 10
868.5
 20
108.0
 30
0.0
 11
131.5
 21
108.0
 31
0.0
  0
LINE
  5
3C
  8
DETAIL
 10
48.446632
 20
553.774271
 30
0.0
 11
48.446632
 21
2465.0
 31
0.0
  0
LINE
  5
3D
  8
DETAIL
 10
32.0
 20
32.0
 30
0.0
 11
32.0
 21
2465.0
 31
0.0
  0
LINE
  5
3E
  8
DETAIL
 10
0.0
 20
0.0
 30
0.0
 11
0.0
 21
2465.0
 31
0.0
  0
LINE
  5
3F
  8
DIMENSIONS
 10
131.5
 20
97.185067
 30
0.0
 11
131.5
 21
-272.64466
 31
0.0
  0
LINE
  5
40
  8
DIMENSIONS
 10
0.0
 20
-10.687359
 30
0.0
 11
0.0
 21
-502.694244
 31
0.0
  0
SOLID
  5
41
  8
DIMENSIONS
 10
25.0
 20
-491.86091
 30
0.0
 11
25.0
 21
-483.527577
 31
0.0
 12
0.0
 22
-487.694244
 32
0.0
 13
0.0
 23
-487.694244
 33
0.0
  0
SOLID
  5
42
  8
DIMENSIONS
 10
156.5
 20
-253.477993
 30
0.0
 11
156.5
 21
-261.811326
 31
0.0
 12
131.5
 22
-257.64466
 32
0.0
 13
131.5
 23
-257.64466
 33
0.0
  0
TEXT
  5
43
  8
DIMENSIONS
 10
467.857143
 20
-236.088827
 30
0.0
 40
25.0
  1
737
 72
     1
 11
500.0
 21
-223.588827
 31
0.0
 73
     2
  0
LINE
  5
44
  8
DIMENSIONS
 10
116.5
 20
459.012026
 30
0.0
 11
92.242206
 21
459.012026
 31
0.0
  0
LINE
  5
45
  8
DIMENSIONS
 10
116.5
 20
108.0
 30
0.0
 11
92.242206
 21
108.0
 31
0.0
  0
TEXT
  5
46
  8
DIMENSIONS
 10
83.204874
 20
251.363156
 30
0.0
 40
25.0
  1
355
 50
90.0
 72
     1
 11
70.704874
 21
283.506013
 31
0.0
 73
     2
  0
POLYLINE
  5
47
  8
ORIGIN
 66
     1
 10
0.0
 20
0.0
 30
0.0
  0
VERTEX
  5
1F5
  8
ORIGIN
 10
0.0
 20
0.0
 30
0.0
  0
VERTEX
  5
1F6
  8
ORIGIN
 10
-100.0
 20
-100.0
 30
0.0
  0
VERTEX
  5
1F7
  8
ORIGIN
 10
-100.0
 20
100.0
 30
0.0
  0
VERTEX
  5
1F8
  8
ORIGIN
 10
100.0
 20
-100.0
 30
0.0
  0
VERTEX
  5
1F9
  8
ORIGIN
 10
100.0
 20
100.0
 30
0.0
  0
VERTEX
  5
1FA
  8
ORIGIN
 10
0.0
 20
0.0
 30
0.0
  0
SEQEND
  5
1FB
  8
ORIGIN
  0
LINE
  5
4F
  8
DIMENSIONS
 10
108.204874
 20
436.006013
 30
0.0
 11
108.204874
 21
131.006013
 31
0.0
  0
LINE
  5
50
  8
DETAIL
 10
131.5
 20
463.0
 30
0.0
 11
131.5
 21
108.0
 31
0.0
  0
LINE
  5
51
  8
DETAIL
 10
166.283293
 20
463.0
 30
0.0
 11
166.283293
 21
108.0
 31
0.0
  0
SOLID
  5
52
  8
DIMENSIONS
 10
104.038207
 20
131.006013
 30
0.0
 11
112.37154
 21
131.006013
 31
0.0
 12
108.204874
 22
106.006013
 32
0.0
 13
108.204874
 23
106.006013
 33
0.0
  0
LINE
  5
53
  8
CENTER
 10
500.0
 20
-96.942474
 30
0.0
 11
500.0
 21
52.942474
 31
0.0
  0
LINE
  5
54
  8
DETAIL
 10
340.858215
 20
0.0
 30
0.0
 11
340.858215
 21
-22.0
 31
0.0
  0
LINE
  5
55
  8
DETAIL
 10
436.871683
 20
-22.0
 30
0.0
 11
436.871683
 21
0.0
 31
0.0
  0
SOLID
  5
56
  8
DIMENSIONS
 10
104.038207
 20
436.006013
 30
0.0
 11
112.37154
 21
436.006013
 31
0.0
 12
108.204874
 22
461.006013
 32
0.0
 13
108.204874
 23
461.006013
 33
0.0
  0
LINE
  5
5C
  8
DIMENSIONS
 10
378.605221
 20
2465.0
 30
0.0
 11
67.675156
 21
2465.0
 31
0.0
  0
TEXT
  5
64
  8
DIMENSIONS
 10
1292.588818
 20
1178.874106
 30
0.0
 40
25.0
  1
2465
 50
90.0
 72
     4
 11
1280.088818
 21
1222.921726
 31
0.0
  0
LINE
  5
65
  8
DETAIL
 10
951.553368
 20
2465.0
 30
0.0
 11
951.553368
 21
553.774271
 31
0.0
  0
LINE
  5
66
  8
DETAIL
 10
968.0
 20
2465.0
 30
0.0
 11
968.0
 21
32.0
 31
0.0
  0
LINE
  5
67
  8
DETAIL
 10
1000.0
 20
2465.0
 30
0.0
 11
1000.0
 21
0.0
 31
0.0
  0
LINE
  5
68
  8
DIMENSIONS
 10
1317.588818
 20
2440.0
 30
0.0
 11
1317.588818
 21
25.0
 31
0.0
  0
TEXT
  5
69
  8
STELTXT
 10
1151.598795
 20
-294.772421
 30
0.0
 40
25.0
  1
BURNER PLATE
  0
LINE
  5
6A
  8
DIMENSIONS
 10
868.5
 20
97.185067
 30
0.0
 11
868.5
 21
-272.64466
 31
0.0
  0
LINE
  5
6B
  8
STELTXT
 10
578.392816
 20
-65.163012
 30
0.0
 11
1116.697764
 21
-278.917294
 31
0.0
  0
LINE
  5
6C
  8
DIMENSIONS
 10
1000.0
 20
-10.687359
 30
0.0
 11
1000.0
 21
-502.694244
 31
0.0
  0
SOLID
  5
6D
  8
DIMENSIONS
 10
843.5
 20
-253.477993
 30
0.0
 11
843.5
 21
-261.811326
 31
0.0
 12
868.5
 22
-257.64466
 32
0.0
 13
868.5
 23
-257.64466
 33
0.0
  0
SOLID
  5
6E
  8
DIMENSIONS
 10
975.0
 20
-491.86091
 30
0.0
 11
975.0
 21
-483.527577
 31
0.0
 12
1000.0
 22
-487.694244
 32
0.0
 13
1000.0
 23
-487.694244
 33
0.0
  0
LINE
  5
6F
  8
STELTXT
 10
1116.697764
 20
-278.917294
 30
0.0
 11
1141.697764
 21
-278.917294
 31
0.0
  0
LINE
  5
70
  8
STELTXT
 10
1116.697764
 20
-278.917294
 30
0.0
 11
1139.598474
 21
-278.917294
 31
0.0
  0
LINE
  5
71
  8
DETAIL
 10
868.5
 20
463.0
 30
0.0
 11
868.5
 21
108.0
 31
0.0
  0
LINE
  5
72
  8
DETAIL
 10
833.716707
 20
463.0
 30
0.0
 11
833.716707
 21
108.0
 31
0.0
  0
LINE
  5
73
  8
DIMENSIONS
 10
702.329595
 20
25.0
 30
0.0
 11
702.329595
 21
50.0
 31
0.0
  0
SOLID
  5
74
  8
STELTXT
 10
576.855082
 20
-69.035541
 30
0.0
 11
579.93055
 21
-61.290482
 31
0.0
 12
555.157639
 22
-55.936608
 32
0.0
 13
555.157639
 23
-55.936608
 33
0.0
  0
LINE
  5
75
  8
DETAIL
 10
563.128317
 20
-22.0
 30
0.0
 11
563.128317
 21
0.0
 31
0.0
  0
LINE
  5
76
  8
DIMENSIONS
 10
674.141785
 20
0.0
 30
0.0
 11
717.329595
 21
0.0
 31
0.0
  0
LINE
  5
77
  8
DIMENSIONS
 10
674.141785
 20
-22.0
 30
0.0
 11
717.329595
 21
-22.0
 31
0.0
  0
LINE
  5
78
  8
DETAIL
 10
659.141785
 20
0.0
 30
0.0
 11
659.141785
 21
-22.0
 31
0.0
  0
LINE
  5
79
  8
DIMENSIONS
 10
702.329595
 20
-47.0
 30
0.0
 11
702.329595
 21
-72.0
 31
0.0
  0
SOLID
  5
7A
  8
DIMENSIONS
 10
698.162929
 20
25.0
 30
0.0
 11
706.496262
 21
25.0
 31
0.0
 12
702.329595
 22
0.0
 32
0.0
 13
702.329595
 23
0.0
 33
0.0
  0
SOLID
  5
7B
  8
DIMENSIONS
 10
698.162929
 20
-47.0
 30
0.0
 11
706.496262
 21
-47.0
 31
0.0
 12
702.329595
 22
-22.0
 32
0.0
 13
702.329595
 23
-22.0
 33
0.0
  0
TEXT
  5
7C
  8
DIMENSIONS
 10
677.329595
 20
50.09
 30
0.0
 40
25.0
  1
22
 50
90.0
 72
     1
 11
664.829595
 21
70.328095
 31
0.0
 73
     2
  0
LINE
  5
7D
  8
DIMENSIONS
 10
702.329595
 20
50.0
 30
0.0
 11
702.329595
 21
90.56619
 31
0.0
  0
LINE
  5
7E
  8
DIMENSIONS
 10
1101.0
 20
0.0
 30
0.0
 11
1332.588818
 21
0.0
 31
0.0
  0
SOLID
  5
7F
  8
DIMENSIONS
 10
1313.422151
 20
25.0
 30
0.0
 11
1321.755485
 21
25.0
 31
0.0
 12
1317.588818
 22
0.0
 32
0.0
 13
1317.588818
 23
0.0
 33
0.0
  0
LINE
  5
88
  8
DIMENSIONS
 10
1101.0
 20
2465.0
 30
0.0
 11
1332.588818
 21
2465.0
 31
0.0
  0
SOLID
  5
89
  8
DIMENSIONS
 10
1313.422151
 20
2440.0
 30
0.0
 11
1321.755485
 21
2440.0
 31
0.0
 12
1317.588818
 22
2465.0
 32
0.0
 13
1317.588818
 23
2465.0
 33
0.0
  0
SOLID
  5
93
  8
STELTXT
 10
905.321235
 20
276.002636
 30
0.0
 11
904.340073
 21
284.278007
 31
0.0
 12
880.004541
 22
277.196836
 32
0.0
 13
880.004541
 23
277.196836
 33
0.0
  0
LINE
  5
94
  8
STELTXT
 10
904.830654
 20
280.140321
 30
0.0
 11
1386.695633
 21
340.997678
 31
0.0
  0
TEXT
  5
95
  8
STELTXT
 10
1552.059335
 20
305.665312
 30
0.0
 40
25.0
  1
PANEL (Optional)
  0
TEXT
  5
96
  8
STELTXT
 10
1552.059335
 20
345.367647
 30
0.0
 40
25.0
  1
DELUXE CONTROL 
  0
LINE
  5
97
  8
STELTXT
 10
1386.695633
 20
340.997678
 30
0.0
 11
1519.91507
 21
340.997678
 31
0.0
  0
LINE
  5
12C
  8
CENTER
 10
439.396837
 20
2738.0
 30
0.0
 11
560.603163
 21
2738.0
 31
0.0
  0
LINE
  5
12E
  8
DIMENSIONS
  6
CONTINUOUS
 10
453.25
 20
2605.0
 30
0.0
 11
223.945722
 21
2605.0
 31
0.0
  0
LINE
  5
12F
  8
DETAIL
 10
375.0
 20
2595.0
 30
0.0
 11
468.25
 21
2595.0
 31
0.0
  0
LINE
  5
133
  8
DIMENSIONS
 10
424.396837
 20
2738.0
 30
0.0
 11
154.398045
 21
2738.0
 31
0.0
  0
TEXT
  5
134
  8
DIMENSIONS
  6
CONTINUOUS
 10
290.88355
 20
2500.238095
 30
0.0
 40
25.0
  1
130
 50
90.0
  0
LINE
  5
135
  8
DIMENSIONS
 10
169.398045
 20
2719.0
 30
0.0
 11
169.398045
 21
2465.0
 31
0.0
  0
TEXT
  5
136
  8
DIMENSIONS
  6
CONTINUOUS
 10
213.945722
 20
2505.238095
 30
0.0
 40
25.0
  1
140
 50
90.0
  0
TEXT
  5
137
  8
DIMENSIONS
 10
144.398045
 20
2575.051813
 30
0.0
 40
25.0
  1
254
 50
90.0
 72
     4
 11
131.898045
 21
2607.789908
 31
0.0
  0
LINE
  5
138
  8
DIMENSIONS
  6
CONTINUOUS
 10
238.945722
 20
2580.0
 30
0.0
 11
238.945722
 21
2490.0
 31
0.0
  0
SOLID
  5
139
  8
DIMENSIONS
  6
CONTINUOUS
 10
234.779055
 20
2580.0
 30
0.0
 11
243.112389
 21
2580.0
 31
0.0
 12
238.945722
 22
2605.0
 32
0.0
 13
238.945722
 23
2605.0
 33
0.0
  0
SOLID
  5
13A
  8
DIMENSIONS
 10
165.231378
 20
2713.0
 30
0.0
 11
173.564711
 21
2713.0
 31
0.0
 12
169.398045
 22
2738.0
 32
0.0
 13
169.398045
 23
2738.0
 33
0.0
  0
LINE
  5
13B
  8
DIMENSIONS
  6
CONTINUOUS
 10
315.88355
 20
2570.0
 30
0.0
 11
315.88355
 21
2490.0
 31
0.0
  0
LINE
  5
13C
  8
DIMENSIONS
  6
CONTINUOUS
 10
360.0
 20
2595.0
 30
0.0
 11
300.88355
 21
2595.0
 31
0.0
  0
SOLID
  5
13D
  8
DIMENSIONS
  6
CONTINUOUS
 10
311.716884
 20
2570.0
 30
0.0
 11
320.050217
 21
2570.0
 31
0.0
 12
315.88355
 22
2595.0
 32
0.0
 13
315.88355
 23
2595.0
 33
0.0
  0
LINE
  5
13E
  8
DETAIL
 10
375.0
 20
2465.0
 30
0.0
 11
375.0
 21
2595.0
 31
0.0
  0
TEXT
  5
13F
  8
STELTXT
 10
920.873124
 20
2732.188812
 30
0.0
 40
25.0
  1
(TO BE WELDED)
  0
TEXT
  5
140
  8
STELTXT
 10
920.873124
 20
2629.562003
 30
0.0
 40
25.0
  1
(TO BE WELDED)
  0
TEXT
  5
141
  8
STELTXT
 10
920.309941
 20
2557.063183
 30
0.0
 40
25.0
  1
FLUE NOZZLE %%c300mm
  0
TEXT
  5
142
  8
STELTXT
 10
920.873124
 20
2772.188812
 30
0.0
 40
25.0
  1
%%C4" WATER FLOW TAPPING
  0
TEXT
  5
143
  8
STELTXT
 10
920.873124
 20
2669.562003
 30
0.0
 40
25.0
  1
%%C4" WATER RETURN TAPPING
  0
LINE
  5
144
  8
STELTXT
 10
561.839378
 20
2726.333049
 30
0.0
 11
861.006548
 21
2768.761694
 31
0.0
  0
LINE
  5
145
  8
STELTXT
 10
562.838882
 20
2607.685939
 30
0.0
 11
858.114884
 21
2660.733471
 31
0.0
  0
LINE
  5
146
  8
STELTXT
 10
666.899582
 20
2558.045921
 30
0.0
 11
855.064913
 21
2572.51042
 31
0.0
  0
LINE
  5
147
  8
DETAIL
 10
531.75
 20
2595.0
 30
0.0
 11
625.0
 21
2595.0
 31
0.0
  0
LINE
  5
148
  8
DETAIL
 10
531.75
 20
2738.0
 30
0.0
 11
531.75
 21
2465.0
 31
0.0
  0
LINE
  5
149
  8
DETAIL
 10
468.25
 20
2738.0
 30
0.0
 11
468.25
 21
2465.0
 31
0.0
  0
LINE
  5
14A
  8
CENTER
 10
500.0
 20
2391.296362
 30
0.0
 11
500.0
 21
2760.603163
 31
0.0
  0
LINE
  5
14B
  8
DETAIL
  6
DASHED
 10
468.25
 20
2605.0
 30
0.0
 11
531.75
 21
2605.0
 31
0.0
  0
SOLID
  5
14C
  8
STELTXT
 10
563.575645
 20
2603.584928
 30
0.0
 11
562.102118
 21
2611.78695
 31
0.0
 12
538.232816
 22
2603.265359
 32
0.0
 13
538.232816
 23
2603.265359
 33
0.0
  0
CIRCLE
  5
14D
  8
DETAIL
 10
500.0
 20
2738.0
 30
0.0
 40
31.75
  0
SOLID
  5
14E
  8
STELTXT
 10
562.42445
 20
2722.207664
 30
0.0
 11
561.254305
 21
2730.458434
 31
0.0
 12
537.087068
 22
2722.822614
 32
0.0
 13
537.087068
 23
2722.822614
 33
0.0
  0
LINE
  5
14F
  8
DETAIL
 10
625.0
 20
2465.0
 30
0.0
 11
625.0
 21
2595.0
 31
0.0
  0
SOLID
  5
150
  8
STELTXT
 10
667.218936
 20
2553.89151
 30
0.0
 11
666.580227
 21
2562.200331
 31
0.0
 12
641.973121
 22
2556.129793
 32
0.0
 13
641.973121
 23
2556.129793
 33
0.0
  0
LINE
  5
151
  8
STELTXT
 10
858.114884
 20
2660.733471
 30
0.0
 11
898.569852
 21
2660.733471
 31
0.0
  0
LINE
  5
152
  8
STELTXT
 10
855.064913
 20
2572.51042
 30
0.0
 11
898.569852
 21
2572.51042
 31
0.0
  0
LINE
  5
153
  8
STELTXT
 10
861.006548
 20
2768.761694
 30
0.0
 11
898.569852
 21
2768.761694
 31
0.0
  0
SOLID
  5
155
  8
DIMENSIONS
 10
165.231378
 20
2490.0
 30
0.0
 11
173.564711
 21
2490.0
 31
0.0
 12
169.398045
 22
2465.0
 32
0.0
 13
169.398045
 23
2465.0
 33
0.0
  0
SOLID
  5
156
  8
DIMENSIONS
  6
CONTINUOUS
 10
234.779055
 20
2490.0
 30
0.0
 11
243.112389
 21
2490.0
 31
0.0
 12
238.945722
 22
2465.0
 32
0.0
 13
238.945722
 23
2465.0
 33
0.0
  0
SOLID
  5
157
  8
DIMENSIONS
  6
CONTINUOUS
 10
311.716884
 20
2490.0
 30
0.0
 11
320.050217
 21
2490.0
 31
0.0
 12
315.88355
 22
2465.0
 32
0.0
 13
315.88355
 23
2465.0
 33
0.0
  0
ATTDEF
  5
186
  8
STELATT
 10
426.044755
 20
-501.324227
 30
0.0
 40
40.0
  1
14
 72
     4
 11
519.378088
 21
-481.324227
 31
0.0
  3

  2
MODEL
 70
     2
  0
ATTDEF
  5
187
  8
STELATT
 10
443.674637
 20
-431.324227
 30
0.0
 40
40.0
  1
VICEROY GT
 72
     4
 11
512.246065
 21
-411.324227
 31
0.0
  3

  2
TYPE
 70
     2
  0
ATTDEF
  5
188
  8
STELATT
 10
278.912732
 20
-361.324227
 30
0.0
 40
40.0
  1
IDEAL
 72
     4
 11
512.246065
 21
-341.324227
 31
0.0
  3

  2
MANUFACTURER
 70
     2
  0
ENDSEC
  0
EOF
