  0
SECTION
  2
HEADER
  9
$ACADVER
  1
AC1009
  9
$INSBASE
 10
0.0
 20
0.0
 30
0.0
  9
$EXTMIN
 10
-1200.003569
 20
-399.491255
 30
0.0
  9
$EXTMAX
 10
2108.5396
 20
2193.988644
 30
0.0
  9
$LIMMIN
 10
0.0
 20
0.0
  9
$LIMMAX
 10
420.0
 20
297.0
  9
$ORTHOMODE
 70
     1
  9
$REGENMODE
 70
     1
  9
$FILLMODE
 70
     1
  9
$QTEXTMODE
 70
     0
  9
$MIRRTEXT
 70
     0
  9
$DRAGMODE
 70
     2
  9
$LTSCALE
 40
25.0
  9
$OSMODE
 70
     0
  9
$ATTMODE
 70
     2
  9
$TEXTSIZE
 40
3.0
  9
$TRACEWID
 40
10.0
  9
$TEXTSTYLE
  7
STANDARD
  9
$CLAYER
  8
0
  9
$CELTYPE
  6
BYLAYER
  9
$CECOLOR
 62
   256
  9
$DIMSCALE
 40
1.0
  9
$DIMASZ
 40
25.0
  9
$DIMEXO
 40
15.0
  9
$DIMDLI
 40
10.0
  9
$DIMRND
 40
0.0
  9
$DIMDLE
 40
1.25
  9
$DIMEXE
 40
15.0
  9
$DIMTP
 40
0.0
  9
$DIMTM
 40
0.0
  9
$DIMTXT
 40
25.0
  9
$DIMCEN
 40
-3.0
  9
$DIMTSZ
 40
0.0
  9
$DIMTOL
 70
     0
  9
$DIMLIM
 70
     0
  9
$DIMTIH
 70
     0
  9
$DIMTOH
 70
     0
  9
$DIMSE1
 70
     0
  9
$DIMSE2
 70
     0
  9
$DIMTAD
 70
     0
  9
$DIMZIN
 70
     1
  9
$DIMBLK
  1

  9
$DIMASO
 70
     0
  9
$DIMSHO
 70
     0
  9
$DIMPOST
  1

  9
$DIMAPOST
  1

  9
$DIMALT
 70
     0
  9
$DIMALTD
 70
     2
  9
$DIMALTF
 40
0.039
  9
$DIMLFAC
 40
1.0
  9
$DIMTOFL
 70
     0
  9
$DIMTVP
 40
1.5
  9
$DIMTIX
 70
     0
  9
$DIMSOXD
 70
     0
  9
$DIMSAH
 70
     0
  9
$DIMBLK1
  1

  9
$DIMBLK2
  1

  9
$DIMSTYLE
  2
STANDARD
  9
$DIMCLRD
 70
     0
  9
$DIMCLRE
 70
     0
  9
$DIMCLRT
 70
     0
  9
$DIMTFAC
 40
1.0
  9
$DIMGAP
 40
0.09
  9
$LUNITS
 70
     2
  9
$LUPREC
 70
     2
  9
$SKETCHINC
 40
1.0
  9
$FILLETRAD
 40
0.0
  9
$AUNITS
 70
     0
  9
$AUPREC
 70
     4
  9
$MENU
  1
acad
  9
$ELEVATION
 40
0.0
  9
$PELEVATION
 40
0.0
  9
$THICKNESS
 40
0.0
  9
$LIMCHECK
 70
     0
  9
$BLIPMODE
 70
     0
  9
$CHAMFERA
 40
66.0
  9
$CHAMFERB
 40
66.0
  9
$SKPOLY
 70
     1
  9
$TDCREATE
 40
2450085.673773
  9
$TDUPDATE
 40
2453073.53484
  9
$TDINDWG
 40
0.244154
  9
$TDUSRTIMER
 40
0.244154
  9
$USRTIMER
 70
     1
  9
$ANGBASE
 50
0.0
  9
$ANGDIR
 70
     0
  9
$PDMODE
 70
     3
  9
$PDSIZE
 40
0.0
  9
$PLINEWID
 40
0.0
  9
$COORDS
 70
     1
  9
$SPLFRAME
 70
     0
  9
$SPLINETYPE
 70
     6
  9
$SPLINESEGS
 70
     6
  9
$ATTDIA
 70
     0
  9
$ATTREQ
 70
     1
  9
$HANDLING
 70
 22529
  9
$HANDSEED
  5
398
  9
$SURFTAB1
 70
    12
  9
$SURFTAB2
 70
    12
  9
$SURFTYPE
 70
     6
  9
$SURFU
 70
    12
  9
$SURFV
 70
    12
  9
$UCSNAME
  2

  9
$UCSORG
 10
0.0
 20
0.0
 30
0.0
  9
$UCSXDIR
 10
1.0
 20
0.0
 30
0.0
  9
$UCSYDIR
 10
0.0
 20
1.0
 30
0.0
  9
$PUCSNAME
  2

  9
$PUCSORG
 10
0.0
 20
0.0
 30
0.0
  9
$PUCSXDIR
 10
1.0
 20
0.0
 30
0.0
  9
$PUCSYDIR
 10
0.0
 20
1.0
 30
0.0
  9
$USERI1
 70
     0
  9
$USERI2
 70
     0
  9
$USERI3
 70
     0
  9
$USERI4
 70
     0
  9
$USERI5
 70
     0
  9
$USERR1
 40
0.0
  9
$USERR2
 40
0.0
  9
$USERR3
 40
0.0
  9
$USERR4
 40
0.0
  9
$USERR5
 40
0.0
  9
$WORLDVIEW
 70
     0
  9
$SHADEDGE
 70
     3
  9
$SHADEDIF
 70
    70
  9
$TILEMODE
 70
     1
  9
$MAXACTVP
 70
    16
  9
$PLIMCHECK
 70
     0
  9
$PEXTMIN
 10
1.000000E+020
 20
1.000000E+020
 30
1.000000E+020
  9
$PEXTMAX
 10
-1.000000E+020
 20
-1.000000E+020
 30
-1.000000E+020
  9
$PLIMMIN
 10
0.0
 20
0.0
  9
$PLIMMAX
 10
12.0
 20
9.0
  9
$UNITMODE
 70
     0
  9
$VISRETAIN
 70
     0
  9
$PLINEGEN
 70
     0
  9
$PSLTSCALE
 70
     0
  0
ENDSEC
  0
SECTION
  2
TABLES
  0
TABLE
  2
VPORT
 70
     2
  0
VPORT
  2
*ACTIVE
 70
     0
 10
0.0
 20
0.0
 11
1.0
 21
1.0
 12
454.268016
 22
897.248694
 13
0.0
 23
0.0
 14
10.0
 24
10.0
 15
0.0
 25
0.0
 16
0.0
 26
0.0
 36
1.0
 17
0.0
 27
0.0
 37
0.0
 40
2623.34723
 41
1.825
 42
50.0
 43
0.0
 44
0.0
 50
0.0
 51
0.0
 71
     0
 72
 20000
 73
     1
 74
     2
 75
     0
 76
     0
 77
     0
 78
     2
  0
ENDTAB
  0
TABLE
  2
LTYPE
 70
     3
  0
LTYPE
  2
CONTINUOUS
 70
     0
  3
Solid line
 72
    65
 73
     0
 40
0.0
  0
LTYPE
  2
CENTER
 70
     0
  3
____ _ ____ _ ____ _ ____ _ ____ _ ____ _ ____
 72
    65
 73
     4
 40
2.0
 49
1.25
 49
-0.25
 49
0.25
 49
-0.25
  0
LTYPE
  2
DASHED
 70
     0
  3
__ __ __ __ __ __ __ __ __ __ __ __ __ __ __
 72
    65
 73
     2
 40
0.75
 49
0.5
 49
-0.25
  0
ENDTAB
  0
TABLE
  2
LAYER
 70
     8
  0
LAYER
  2
0
 70
     0
 62
     7
  6
CONTINUOUS
  0
LAYER
  2
DETAIL
 70
     0
 62
     2
  6
CONTINUOUS
  0
LAYER
  2
DIMENSIONS
 70
     0
 62
     7
  6
CONTINUOUS
  0
LAYER
  2
CENTER
 70
     0
 62
     4
  6
CENTER
  0
LAYER
  2
ORIGIN
 70
     0
 62
     6
  6
CONTINUOUS
  0
LAYER
  2
PLANNING
 70
     0
 62
     1
  6
DASHED
  0
LAYER
  2
STELTXT
 70
     0
 62
     4
  6
CONTINUOUS
  0
LAYER
  2
STELATT
 70
     0
 62
     7
  6
CONTINUOUS
  0
ENDTAB
  0
TABLE
  2
STYLE
 70
     1
  0
STYLE
  2
STANDARD
 70
     0
 40
0.0
 41
1.0
 50
0.0
 71
     0
 42
3.0
  3
simplex
  4

  0
ENDTAB
  0
TABLE
  2
VIEW
 70
     0
  0
ENDTAB
  0
TABLE
  2
UCS
 70
     0
  0
ENDTAB
  0
TABLE
  2
APPID
 70
     1
  0
APPID
  2
ACAD
 70
     0
  0
ENDTAB
  0
TABLE
  2
DIMSTYLE
 70
     1
  0
DIMSTYLE
  2
STANDARD
 70
     0
  3

  4

  5

  6

  7

 40
1.0
 41
0.18
 42
0.0625
 43
0.38
 44
0.18
 45
0.0
 46
0.0
 47
0.0
 48
0.0
140
0.18
141
0.09
142
0.0
143
25.4
144
1.0
145
0.0
146
1.0
147
0.09
 71
     0
 72
     0
 73
     1
 74
     1
 75
     0
 76
     0
 77
     0
 78
     0
170
     0
171
     2
172
     0
173
     0
174
     0
175
     0
176
     0
177
     0
178
     0
  0
ENDTAB
  0
ENDSEC
  0
SECTION
  2
BLOCKS
  0
BLOCK
  8
0
  2
$MODEL_SPACE
 70
     0
 10
0.0
 20
0.0
 30
0.0
  3
$MODEL_SPACE
  1

  0
ENDBLK
  5
202
  8
0
  0
BLOCK
 67
     1
  8
0
  2
$PAPER_SPACE
 70
     0
 10
0.0
 20
0.0
 30
0.0
  3
$PAPER_SPACE
  1

  0
ENDBLK
  5
200
 67
     1
  8
0
  0
ENDSEC
  0
SECTION
  2
ENTITIES
  0
LINE
  5
1E
  8
STELTXT
 10
777.301415
 20
320.664651
 30
0.0
 11
1473.583264
 21
320.664651
 31
0.0
  0
LINE
  5
20
  8
STELTXT
 10
777.301415
 20
231.207399
 30
0.0
 11
1473.583264
 21
231.207399
 31
0.0
  0
LINE
  5
21
  8
STELTXT
 10
803.579601
 20
453.112955
 30
0.0
 11
1473.583264
 21
453.112955
 31
0.0
  0
LINE
  5
22
  8
STELTXT
 10
803.579601
 20
1049.494697
 30
0.0
 11
1473.583264
 21
1049.494697
 31
0.0
  0
LINE
  5
24
  8
STELTXT
 10
803.579601
 20
661.846574
 30
0.0
 11
1473.583264
 21
661.846574
 31
0.0
  0
LINE
  5
25
  8
DIMENSIONS
 10
801.290866
 20
145.0
 30
0.0
 11
1324.647204
 21
145.0
 31
0.0
  0
LINE
  5
26
  8
DETAIL
 10
894.001017
 20
542.997111
 30
0.0
 11
277.998983
 21
542.997111
 31
0.0
  0
LINE
  5
28
  8
DETAIL
 10
1172.0
 20
1038.999145
 30
0.0
 11
0.0
 21
1038.999145
 31
0.0
  0
LINE
  5
2A
  8
DIMENSIONS
 10
25.0
 20
2143.902387
 30
0.0
 11
1147.0
 21
2143.902387
 31
0.0
  0
LINE
  5
2D
  8
CENTER
 10
834.132756
 20
815.0
 30
0.0
 11
337.867244
 21
815.0
 31
0.0
  0
LINE
  5
30
  8
CENTER
 10
920.698359
 20
791.0
 30
0.0
 11
251.301641
 21
791.0
 31
0.0
  0
LINE
  5
31
  8
PLANNING
 10
1672.0
 20
1760.0
 30
0.0
 11
-1200.0
 21
1760.0
 31
0.0
  0
LINE
  5
33
  8
DETAIL
 10
929.216707
 20
1609.000049
 30
0.0
 11
242.783293
 21
1609.000049
 31
0.0
  0
LINE
  5
34
  8
DETAIL
 10
242.783293
 20
1709.141719
 30
0.0
 11
929.216707
 21
1709.141719
 31
0.0
  0
LINE
  5
35
  8
DETAIL
 10
242.783293
 20
1740.461315
 30
0.0
 11
929.216707
 21
1740.461315
 31
0.0
  0
LINE
  5
36
  8
DETAIL
 10
242.783293
 20
1542.927275
 30
0.0
 11
929.216707
 21
1542.927275
 31
0.0
  0
LINE
  5
37
  8
DETAIL
 10
929.216707
 20
1577.680453
 30
0.0
 11
242.783293
 21
1577.680453
 31
0.0
  0
LINE
  5
38
  8
DETAIL
 10
0.0
 20
1529.524249
 30
0.0
 11
1172.0
 21
1529.524249
 31
0.0
  0
LINE
  5
39
  8
DETAIL
 10
208.0
 20
1760.0
 30
0.0
 11
964.0
 21
1760.0
 31
0.0
  0
LINE
  5
3A
  8
PLANNING
 10
1672.0
 20
0.0
 30
0.0
 11
-1200.0
 21
0.0
 31
0.0
  0
LINE
  5
3B
  8
DETAIL
 10
1172.0
 20
35.0
 30
0.0
 11
0.0
 21
35.0
 31
0.0
  0
LINE
  5
3C
  8
DETAIL
 10
0.0
 20
1562.0
 30
0.0
 11
1172.0
 21
1562.0
 31
0.0
  0
LINE
  5
3E
  8
DIMENSIONS
 10
-309.787809
 20
1255.0
 30
0.0
 11
-309.787809
 21
25.0
 31
0.0
  0
LINE
  5
3F
  8
DIMENSIONS
 10
-458.658319
 20
1562.0
 30
0.0
 11
-458.658319
 21
25.0
 31
0.0
  0
LINE
  5
40
  8
DIMENSIONS
  6
CONTINUOUS
 10
-384.004811
 20
1463.0
 30
0.0
 11
-384.004811
 21
25.0
 31
0.0
  0
LINE
  5
41
  8
DETAIL
 10
277.998983
 20
1038.999145
 30
0.0
 11
277.998983
 21
35.0
 31
0.0
  0
LINE
  5
42
  8
CENTER
 10
586.0
 20
527.596641
 30
0.0
 11
586.0
 21
1028.993359
 31
0.0
  0
LINE
  5
43
  8
PLANNING
 10
-1200.0
 20
0.0
 30
0.0
 11
-1200.0
 21
1760.0
 31
0.0
  0
LINE
  5
44
  8
DETAIL
 10
0.0
 20
35.0
 30
0.0
 11
0.0
 21
1562.0
 31
0.0
  0
LINE
  5
45
  8
DIMENSIONS
 10
493.15307
 20
150.0
 30
0.0
 11
-38.53425
 21
150.0
 31
0.0
  0
LINE
  5
46
  8
DIMENSIONS
 10
493.15307
 20
200.0
 30
0.0
 11
-109.029403
 21
200.0
 31
0.0
  0
LINE
  5
48
  8
DIMENSIONS
 10
304.460319
 20
815.0
 30
0.0
 11
-247.919336
 21
815.0
 31
0.0
  0
LINE
  5
49
  8
DIMENSIONS
 10
184.796984
 20
791.0
 30
0.0
 11
-171.842198
 21
791.0
 31
0.0
  0
POLYLINE
  5
4A
  8
ORIGIN
 66
     1
 10
0.0
 20
0.0
 30
0.0
  0
VERTEX
  5
2F2
  8
ORIGIN
 10
0.0
 20
0.0
 30
0.0
  0
VERTEX
  5
2F3
  8
ORIGIN
 10
-100.0
 20
-100.0
 30
0.0
  0
VERTEX
  5
2F4
  8
ORIGIN
 10
-100.0
 20
100.0
 30
0.0
  0
VERTEX
  5
2F5
  8
ORIGIN
 10
100.0
 20
-100.0
 30
0.0
  0
VERTEX
  5
2F6
  8
ORIGIN
 10
100.0
 20
100.0
 30
0.0
  0
VERTEX
  5
2F7
  8
ORIGIN
 10
0.0
 20
0.0
 30
0.0
  0
SEQEND
  5
2F8
  8
ORIGIN
  0
POLYLINE
  5
53
  8
ORIGIN
 66
     1
 10
0.0
 20
0.0
 30
0.0
  0
VERTEX
  5
2F9
  8
ORIGIN
 10
0.0
 20
0.0
 30
0.0
  0
VERTEX
  5
2FA
  8
ORIGIN
 10
-100.0
 20
-100.0
 30
0.0
  0
VERTEX
  5
2FB
  8
ORIGIN
 10
-100.0
 20
100.0
 30
0.0
  0
VERTEX
  5
2FC
  8
ORIGIN
 10
100.0
 20
-100.0
 30
0.0
  0
VERTEX
  5
2FD
  8
ORIGIN
 10
100.0
 20
100.0
 30
0.0
  0
VERTEX
  5
2FE
  8
ORIGIN
 10
0.0
 20
0.0
 30
0.0
  0
SEQEND
  5
2FF
  8
ORIGIN
  0
LINE
  5
5B
  8
DIMENSIONS
 10
-232.919336
 20
790.0
 30
0.0
 11
-232.919336
 21
25.0
 31
0.0
  0
LINE
  5
5C
  8
DIMENSIONS
 10
-156.842198
 20
766.0
 30
0.0
 11
-156.842198
 21
25.0
 31
0.0
  0
SOLID
  5
5F
  8
DIMENSIONS
  6
CONTINUOUS
 10
-388.171478
 20
25.0
 30
0.0
 11
-379.838144
 21
25.0
 31
0.0
 12
-384.004811
 22
0.0
 32
0.0
 13
-384.004811
 23
0.0
 33
0.0
  0
SOLID
  5
60
  8
DIMENSIONS
 10
-454.491653
 20
25.0
 30
0.0
 11
-462.824986
 21
25.0
 31
0.0
 12
-458.658319
 22
0.0
 32
0.0
 13
-458.658319
 23
0.0
 33
0.0
  0
LINE
  5
61
  8
DIMENSIONS
  6
CONTINUOUS
 10
-373.868924
 20
0.0
 30
0.0
 11
-369.004811
 21
0.0
 31
0.0
  0
SOLID
  5
62
  8
DIMENSIONS
 10
-313.954475
 20
25.0
 30
0.0
 11
-305.621142
 21
25.0
 31
0.0
 12
-309.787809
 22
0.0
 32
0.0
 13
-309.787809
 23
0.0
 33
0.0
  0
LINE
  5
63
  8
DIMENSIONS
 10
-94.029403
 20
175.0
 30
0.0
 11
-94.029403
 21
25.0
 31
0.0
  0
TEXT
  5
64
  8
DIMENSIONS
 10
-101.719717
 20
67.857143
 30
0.0
 40
25.0
  1
200
 50
90.0
 72
     1
 11
-114.219717
 21
100.0
 31
0.0
 73
     2
  0
SOLID
  5
65
  8
DIMENSIONS
 10
-237.086003
 20
25.0
 30
0.0
 11
-228.752669
 21
25.0
 31
0.0
 12
-232.919336
 22
0.0
 32
0.0
 13
-232.919336
 23
0.0
 33
0.0
  0
SOLID
  5
66
  8
DIMENSIONS
 10
-161.008865
 20
25.0
 30
0.0
 11
-152.675531
 21
25.0
 31
0.0
 12
-156.842198
 22
0.0
 32
0.0
 13
-156.842198
 23
0.0
 33
0.0
  0
LINE
  5
67
  8
DIMENSIONS
 10
-23.53425
 20
125.0
 30
0.0
 11
-23.53425
 21
25.0
 31
0.0
  0
TEXT
  5
68
  8
DIMENSIONS
 10
-32.884499
 20
45.238095
 30
0.0
 40
25.0
  1
150
 50
90.0
 72
     1
 11
-45.384499
 21
75.0
 31
0.0
 73
     2
  0
SOLID
  5
69
  8
DIMENSIONS
 10
-98.19607
 20
25.0
 30
0.0
 11
-89.862737
 21
25.0
 31
0.0
 12
-94.029403
 22
0.0
 32
0.0
 13
-94.029403
 23
0.0
 33
0.0
  0
SOLID
  5
6A
  8
DIMENSIONS
 10
-27.700917
 20
25.0
 30
0.0
 11
-19.367584
 21
25.0
 31
0.0
 12
-23.53425
 22
0.0
 32
0.0
 13
-23.53425
 23
0.0
 33
0.0
  0
SOLID
  5
6B
  8
DIMENSIONS
 10
-27.700917
 20
125.0
 30
0.0
 11
-19.367584
 21
125.0
 31
0.0
 12
-23.53425
 22
150.0
 32
0.0
 13
-23.53425
 23
150.0
 33
0.0
  0
SOLID
  5
6C
  8
DIMENSIONS
 10
-98.19607
 20
175.0
 30
0.0
 11
-89.862737
 21
175.0
 31
0.0
 12
-94.029403
 22
200.0
 32
0.0
 13
-94.029403
 23
200.0
 33
0.0
  0
TEXT
  5
6E
  8
DIMENSIONS
 10
-240.032657
 20
377.738095
 30
0.0
 40
25.0
  1
815
 50
90.0
 72
     1
 11
-252.532657
 21
407.5
 31
0.0
 73
     2
  0
TEXT
  5
6F
  8
DIMENSIONS
 10
-318.001319
 20
598.333333
 30
0.0
 40
25.0
  1
1280
 50
90.0
 72
     1
 11
-330.501319
 21
640.0
 31
0.0
 73
     2
  0
TEXT
  5
70
  8
DIMENSIONS
 10
-164.738584
 20
368.714286
 30
0.0
 40
25.0
  1
791
 50
90.0
 72
     1
 11
-177.238584
 21
395.5
 31
0.0
 73
     2
  0
TEXT
  5
71
  8
DIMENSIONS
 10
-465.867929
 20
748.928571
 30
0.0
 40
25.0
  1
1566
 50
90.0
 72
     4
 11
-478.367929
 21
790.0
 31
0.0
  0
TEXT
  5
72
  8
DIMENSIONS
  6
CONTINUOUS
 10
-391.544224
 20
702.333333
 30
0.0
 40
25.0
  1
1488
 50
90.0
  0
SOLID
  5
73
  8
DIMENSIONS
 10
-161.008865
 20
766.0
 30
0.0
 11
-152.675531
 21
766.0
 31
0.0
 12
-156.842198
 22
791.0
 32
0.0
 13
-156.842198
 23
791.0
 33
0.0
  0
SOLID
  5
74
  8
DIMENSIONS
 10
-237.086003
 20
790.0
 30
0.0
 11
-228.752669
 21
790.0
 31
0.0
 12
-232.919336
 22
815.0
 32
0.0
 13
-232.919336
 23
815.0
 33
0.0
  0
LINE
  5
75
  8
STELTXT
 10
613.166208
 20
235.129833
 30
0.0
 11
803.579601
 21
453.112955
 31
0.0
  0
LINE
  5
76
  8
DETAIL
 10
171.844323
 20
0.0
 30
0.0
 11
1000.155677
 21
0.0
 31
0.0
  0
LINE
  5
78
  8
DETAIL
 10
171.844323
 20
0.0
 30
0.0
 11
171.844323
 21
35.0
 31
0.0
  0
TEXT
  5
79
  8
DIMENSIONS
 10
628.738095
 20
-47.340435
 30
0.0
 40
25.0
  1
145
 72
     1
 11
658.5
 21
-34.840435
 31
0.0
 73
     2
  0
LINE
  5
7A
  8
DIMENSIONS
 10
731.0
 20
74.709134
 30
0.0
 11
731.0
 21
-87.340435
 31
0.0
  0
LINE
  5
7B
  8
DIMENSIONS
 10
586.0
 20
57.15307
 30
0.0
 11
586.0
 21
-87.340435
 31
0.0
  0
SOLID
  5
7C
  8
DIMENSIONS
 10
611.0
 20
-68.173769
 30
0.0
 11
611.0
 21
-76.507102
 31
0.0
 12
586.0
 22
-72.340435
 32
0.0
 13
586.0
 23
-72.340435
 33
0.0
  0
LINE
  5
7D
  8
DIMENSIONS
 10
611.0
 20
-72.340435
 30
0.0
 11
706.0
 21
-72.340435
 31
0.0
  0
SOLID
  5
7E
  8
DIMENSIONS
 10
706.0
 20
-68.173769
 30
0.0
 11
706.0
 21
-76.507102
 31
0.0
 12
731.0
 22
-72.340435
 32
0.0
 13
731.0
 23
-72.340435
 33
0.0
  0
SOLID
  5
7F
  8
STELTXT
 10
616.304239
 20
232.388688
 30
0.0
 11
610.028177
 21
237.870977
 31
0.0
 12
596.719343
 22
216.301645
 32
0.0
 13
596.719343
 23
216.301645
 33
0.0
  0
LINE
  5
80
  8
CENTER
 10
663.84693
 20
200.0
 30
0.0
 11
508.15307
 21
200.0
 31
0.0
  0
CIRCLE
  5
81
  8
DETAIL
 10
586.0
 20
150.0
 30
0.0
 40
25.4
  0
LINE
  5
82
  8
CENTER
 10
663.84693
 20
150.0
 30
0.0
 11
508.15307
 21
150.0
 31
0.0
  0
LINE
  5
83
  8
CENTER
 10
586.0
 20
72.15307
 30
0.0
 11
586.0
 21
277.84693
 31
0.0
  0
LINE
  5
84
  8
CENTER
 10
731.0
 20
89.709134
 30
0.0
 11
731.0
 21
200.290866
 31
0.0
  0
LINE
  5
85
  8
CENTER
 10
786.290866
 20
145.0
 30
0.0
 11
675.709134
 21
145.0
 31
0.0
  0
LINE
  5
86
  8
STELTXT
 10
629.810954
 20
181.288997
 30
0.0
 11
777.301415
 21
320.664651
 31
0.0
  0
SOLID
  5
87
  8
STELTXT
 10
632.672743
 20
178.260586
 30
0.0
 11
626.949164
 21
184.317407
 31
0.0
 12
611.64049
 22
164.118258
 32
0.0
 13
611.64049
 23
164.118258
 33
0.0
  0
LINE
  5
88
  8
STELTXT
 10
750.019931
 20
178.83556
 30
0.0
 11
777.301415
 21
231.207399
 31
0.0
  0
SOLID
  5
89
  8
STELTXT
 10
753.715277
 20
176.910584
 30
0.0
 11
746.324585
 21
180.760535
 31
0.0
 12
738.470077
 22
156.663485
 32
0.0
 13
738.470077
 23
156.663485
 33
0.0
  0
LINE
  5
8A
  8
STELTXT
 10
777.301415
 20
320.664651
 30
0.0
 11
802.301415
 21
320.664651
 31
0.0
  0
LINE
  5
8B
  8
STELTXT
 10
618.799842
 20
759.958184
 30
0.0
 11
803.579601
 21
661.846574
 31
0.0
  0
LINE
  5
8C
  8
CENTER
 10
586.0
 20
576.945703
 30
0.0
 11
586.0
 21
570.485105
 31
0.0
  0
SOLID
  5
8D
  8
STELTXT
 10
616.845846
 20
756.278101
 30
0.0
 11
620.753838
 21
763.638268
 31
0.0
 12
596.719343
 22
771.682159
 32
0.0
 13
596.719343
 23
771.682159
 33
0.0
  0
LINE
  5
8E
  8
STELTXT
 10
740.811222
 20
1008.901485
 30
0.0
 11
803.579601
 21
1049.494697
 31
0.0
  0
SOLID
  5
8F
  8
STELTXT
 10
743.07392
 20
1005.402727
 30
0.0
 11
738.548525
 21
1012.400244
 31
0.0
 12
719.818671
 22
995.325301
 32
0.0
 13
719.818671
 23
995.325301
 33
0.0
  0
LINE
  5
91
  8
DIMENSIONS
 10
501.15
 20
1280.0
 30
0.0
 11
-324.787809
 21
1280.0
 31
0.0
  0
LINE
  5
92
  8
DIMENSIONS
  6
CONTINUOUS
 10
501.15
 20
1488.0
 30
0.0
 11
-399.004811
 21
1488.0
 31
0.0
  0
SOLID
  5
94
  8
DIMENSIONS
 10
-313.954475
 20
1255.0
 30
0.0
 11
-305.621142
 21
1255.0
 31
0.0
 12
-309.787809
 22
1280.0
 32
0.0
 13
-309.787809
 23
1280.0
 33
0.0
  0
LINE
  5
95
  8
DIMENSIONS
 10
-15.0
 20
1562.0
 30
0.0
 11
-473.658319
 21
1562.0
 31
0.0
  0
SOLID
  5
96
  8
DIMENSIONS
  6
CONTINUOUS
 10
-388.171478
 20
1463.0
 30
0.0
 11
-379.838144
 21
1463.0
 31
0.0
 12
-384.004811
 22
1488.0
 32
0.0
 13
-384.004811
 23
1488.0
 33
0.0
  0
SOLID
  5
97
  8
DIMENSIONS
 10
-454.491653
 20
1537.0
 30
0.0
 11
-462.824986
 21
1537.0
 31
0.0
 12
-458.658319
 22
1562.0
 32
0.0
 13
-458.658319
 23
1562.0
 33
0.0
  0
LINE
  5
98
  8
DIMENSIONS
 10
0.0
 20
1577.0
 30
0.0
 11
0.0
 21
2158.902387
 31
0.0
  0
LINE
  5
99
  8
DETAIL
 10
208.0
 20
1606.010152
 30
0.0
 11
242.783293
 21
1577.680453
 31
0.0
  0
LINE
  5
9A
  8
DETAIL
 10
242.783293
 20
1562.0
 30
0.0
 11
242.783293
 21
1760.0
 31
0.0
  0
LINE
  5
9B
  8
DETAIL
 10
242.783293
 20
1562.0
 30
0.0
 11
242.783293
 21
1529.524249
 31
0.0
  0
LINE
  5
9C
  8
DETAIL
 10
208.0
 20
1606.010152
 30
0.0
 11
208.0
 21
1760.0
 31
0.0
  0
LINE
  5
9D
  8
DETAIL
 10
208.0
 20
1619.089504
 30
0.0
 11
242.783293
 21
1619.089504
 31
0.0
  0
LINE
  5
9E
  8
DETAIL
  6
DASHED
 10
516.15
 20
1488.0
 30
0.0
 11
516.15
 21
1280.0
 31
0.0
  0
LINE
  5
9F
  8
DETAIL
  6
DASHED
 10
655.85
 20
1488.0
 30
0.0
 11
655.85
 21
1280.0
 31
0.0
  0
LINE
  5
A0
  8
CENTER
 10
655.85
 20
1280.0
 30
0.0
 11
516.15
 21
1280.0
 31
0.0
  0
CIRCLE
  5
A1
  8
DETAIL
  6
DASHED
 10
586.0
 20
1280.0
 30
0.0
 40
69.85
  0
LINE
  5
A3
  8
CENTER
 10
586.0
 20
1210.15
 30
0.0
 11
586.0
 21
1526.400418
 31
0.0
  0
LINE
  5
A5
  8
DETAIL
  6
DASHED
 10
516.15
 20
1488.0
 30
0.0
 11
655.85
 21
1488.0
 31
0.0
  0
CIRCLE
  5
A6
  8
DETAIL
 10
592.604499
 20
1641.564615
 30
0.0
 40
20.0
  0
POLYLINE
  5
A7
  8
DETAIL
 66
     1
 10
0.0
 20
0.0
 30
0.0
 70
     1
  0
VERTEX
  5
300
  8
DETAIL
 10
469.666334
 20
1630.215452
 30
0.0
  0
VERTEX
  5
301
  8
DETAIL
 10
469.666334
 20
1649.159889
 30
0.0
  0
VERTEX
  5
302
  8
DETAIL
 10
526.645908
 20
1649.159889
 30
0.0
  0
VERTEX
  5
303
  8
DETAIL
 10
526.645908
 20
1630.215452
 30
0.0
  0
SEQEND
  5
304
  8
DETAIL
  0
CIRCLE
  5
AD
  8
DETAIL
 10
422.944052
 20
1638.196446
 30
0.0
 40
7.0
  0
CIRCLE
  5
AE
  8
DETAIL
 10
422.944052
 20
1681.982036
 30
0.0
 40
7.0
  0
CIRCLE
  5
AF
  8
DETAIL
 10
592.604499
 20
1681.982036
 30
0.0
 40
7.0
  0
CIRCLE
  5
B0
  8
DETAIL
 10
671.114512
 20
1641.564615
 30
0.0
 40
20.0
  0
CIRCLE
  5
B1
  8
DETAIL
 10
671.114512
 20
1681.982036
 30
0.0
 40
7.0
  0
SOLID
  5
B5
  8
DIMENSIONS
 10
25.0
 20
2148.069054
 30
0.0
 11
25.0
 21
2139.735721
 31
0.0
 12
0.0
 22
2143.902387
 32
0.0
 13
0.0
 23
2143.902387
 33
0.0
  0
TEXT
  5
B9
  8
DIMENSIONS
 10
546.714286
 20
2168.902387
 30
0.0
 40
25.0
  1
1172
 72
     1
 11
586.0
 21
2181.402387
 31
0.0
 73
     2
  0
LINE
  5
BA
  8
DETAIL
 10
894.001017
 20
1038.999145
 30
0.0
 11
894.001017
 21
35.0
 31
0.0
  0
TEXT
  5
BB
  8
STELTXT
 10
1492.811866
 20
1061.529455
 30
0.0
 40
25.0
  1
%%C450mm FLUE NOZZLE (LENGTH
  0
LINE
  5
BC
  8
PLANNING
 10
1672.0
 20
1756.0
 30
0.0
 11
1672.0
 21
0.0
 31
0.0
  0
LINE
  5
BD
  8
DETAIL
 10
1172.0
 20
1562.0
 30
0.0
 11
1172.0
 21
35.0
 31
0.0
  0
TEXT
  5
BE
  8
STELTXT
 10
1488.827186
 20
289.894409
 30
0.0
 40
25.0
  1
OPENING VALVE %%C2" PLUG
  0
TEXT
  5
BF
  8
STELTXT
 10
1492.811866
 20
1020.634162
 30
0.0
 40
25.0
  1
OF THE  SPIGOT:100mm)
  0
TEXT
  5
C0
  8
STELTXT
 10
1489.556891
 20
459.029636
 30
0.0
 40
25.0
  1
%%C139.7mm WATER RETURN 
  0
TEXT
  5
C1
  8
STELTXT
 10
1489.556891
 20
419.029636
 30
0.0
 40
25.0
  1
FLANGE (TO BE WELDED)
  0
TEXT
  5
C2
  8
STELTXT
 10
1489.764552
 20
665.357415
 30
0.0
 40
25.0
  1
BURNER PLATE
  0
TEXT
  5
C3
  8
STELTXT
 10
1488.827186
 20
219.829742
 30
0.0
 40
25.0
  1
PLUGGED DRAIN COCK POS'N.
  0
TEXT
  5
C4
  8
STELTXT
 10
1488.827186
 20
329.894409
 30
0.0
 40
25.0
  1
POSSIBILITY OF QUICK (FRONT)
  0
TEXT
  5
C5
  8
STELTXT
 10
1489.764552
 20
626.571742
 30
0.0
 40
25.0
  1
CENTRE LINE
  0
LINE
  5
C6
  8
DIMENSIONS
 10
1061.09482
 20
-0.288448
 30
0.0
 11
1330.88238
 21
-0.288448
 31
0.0
  0
LINE
  5
C9
  8
DETAIL
 10
1000.155677
 20
0.0
 30
0.0
 11
1000.155677
 21
35.0
 31
0.0
  0
SOLID
  5
CD
  8
DIMENSIONS
 10
1309.075102
 20
25.0
 30
0.0
 11
1317.408436
 21
25.0
 31
0.0
 12
1313.241769
 22
0.0
 32
0.0
 13
1313.241769
 23
0.0
 33
0.0
  0
SOLID
  5
CE
  8
DIMENSIONS
 10
1309.075102
 20
120.0
 30
0.0
 11
1317.408436
 21
120.0
 31
0.0
 12
1313.241769
 22
145.0
 32
0.0
 13
1313.241769
 23
145.0
 33
0.0
  0
TEXT
  5
CF
  8
DIMENSIONS
 10
1288.241769
 20
42.738095
 30
0.0
 40
25.0
  1
145
 50
90.0
 72
     1
 11
1275.741769
 21
72.5
 31
0.0
 73
     2
  0
LINE
  5
D0
  8
DIMENSIONS
 10
1313.241769
 20
120.0
 30
0.0
 11
1313.241769
 21
25.0
 31
0.0
  0
TEXT
  5
D4
  8
STELTXT
 10
1467.272077
 20
1700.775239
 30
0.0
 40
25.0
  1
 DELUXE CONTROL
  0
TEXT
  5
D5
  8
STELTXT
 10
1488.906956
 20
1658.613123
 30
0.0
 40
25.0
  1
PANEL(Optional)
  0
TEXT
  5
D6
  8
STELTXT
 10
1488.906956
 20
1310.267525
 30
0.0
 40
25.0
  1
FLANGE (TO BE WELDED)
  0
TEXT
  5
D7
  8
STELTXT
 10
1488.906956
 20
1350.267525
 30
0.0
 40
25.0
  1
%%C139.7mm WATER FLOW 
  0
LINE
  5
D8
  8
DIMENSIONS
 10
1172.0
 20
1577.0
 30
0.0
 11
1172.0
 21
2158.902387
 31
0.0
  0
LINE
  5
D9
  8
STELTXT
 10
1005.753258
 20
1686.991165
 30
0.0
 11
1473.583489
 21
1686.990883
 31
0.0
  0
LINE
  5
DA
  8
DETAIL
 10
964.0
 20
1606.010152
 30
0.0
 11
929.216707
 21
1577.680453
 31
0.0
  0
LINE
  5
DB
  8
DETAIL
 10
929.216707
 20
1529.524249
 30
0.0
 11
929.216707
 21
1760.0
 31
0.0
  0
POLYLINE
  5
DC
  8
DETAIL
 66
     1
 10
0.0
 20
0.0
 30
0.0
 70
     1
  0
VERTEX
  5
305
  8
DETAIL
 10
872.238277
 20
1623.365956
 30
0.0
  0
VERTEX
  5
306
  8
DETAIL
 10
872.238277
 20
1641.746573
 30
0.0
  0
VERTEX
  5
307
  8
DETAIL
 10
893.696799
 20
1641.746573
 30
0.0
  0
VERTEX
  5
308
  8
DETAIL
 10
893.696799
 20
1623.365956
 30
0.0
  0
SEQEND
  5
309
  8
DETAIL
  0
POLYLINE
  5
E2
  8
DETAIL
 66
     1
 10
0.0
 20
0.0
 30
0.0
 70
     1
  0
VERTEX
  5
30A
  8
DETAIL
 10
872.238277
 20
1649.188211
 30
0.0
  0
VERTEX
  5
30B
  8
DETAIL
 10
872.238277
 20
1667.568828
 30
0.0
  0
VERTEX
  5
30C
  8
DETAIL
 10
893.696799
 20
1667.568828
 30
0.0
  0
VERTEX
  5
30D
  8
DETAIL
 10
893.696799
 20
1649.188211
 30
0.0
  0
SEQEND
  5
30E
  8
DETAIL
  0
POLYLINE
  5
E8
  8
DETAIL
 66
     1
 10
0.0
 20
0.0
 30
0.0
 70
     1
  0
VERTEX
  5
30F
  8
DETAIL
 10
872.238277
 20
1675.010466
 30
0.0
  0
VERTEX
  5
310
  8
DETAIL
 10
872.238277
 20
1693.391083
 30
0.0
  0
VERTEX
  5
311
  8
DETAIL
 10
893.696799
 20
1693.391083
 30
0.0
  0
VERTEX
  5
312
  8
DETAIL
 10
893.696799
 20
1675.010466
 30
0.0
  0
SEQEND
  5
313
  8
DETAIL
  0
LINE
  5
EE
  8
DETAIL
 10
964.0
 20
1606.010152
 30
0.0
 11
964.0
 21
1760.0
 31
0.0
  0
LINE
  5
EF
  8
DETAIL
 10
964.0
 20
1619.089504
 30
0.0
 11
929.216707
 21
1619.089504
 31
0.0
  0
SOLID
  5
F0
  8
STELTXT
 10
1005.753256
 20
1682.824499
 30
0.0
 11
1005.753261
 21
1691.157832
 31
0.0
 12
980.753258
 22
1686.991181
 32
0.0
 13
980.753258
 23
1686.991181
 33
0.0
  0
SOLID
  5
F3
  8
DIMENSIONS
 10
1147.0
 20
2148.069054
 30
0.0
 11
1147.0
 21
2139.735721
 31
0.0
 12
1172.0
 22
2143.902387
 32
0.0
 13
1172.0
 23
2143.902387
 33
0.0
  0
LINE
  5
120
  8
STELTXT
 10
608.399351
 20
1471.941683
 30
0.0
 11
871.162636
 21
1345.277136
 31
0.0
  0
SOLID
  5
121
  8
STELTXT
 10
613.758468
 20
1464.732564
 30
0.0
 11
617.377051
 21
1472.239248
 31
0.0
 12
593.047708
 22
1479.341655
 32
0.0
 13
593.047708
 23
1479.341655
 33
0.0
  0
LINE
  5
122
  8
STELTXT
 10
871.162636
 20
1345.277136
 30
0.0
 11
1473.583489
 21
1345.276772
 31
0.0
  0
ATTDEF
  5
1D6
  8
STELATT
 10
521.519078
 20
-399.464944
 30
0.0
 40
40.0
  1
14
 72
     4
 11
614.852412
 21
-379.464944
 31
0.0
  3

  2
MODEL
 70
     2
  0
ATTDEF
  5
1D7
  8
STELATT
 10
535.990854
 20
-324.324227
 30
0.0
 40
40.0
  1
VISCOUNT GTE
 72
     4
 11
604.562283
 21
-304.324227
 31
0.0
  3

  2
TYPE
 70
     2
  0
ATTDEF
  5
1D8
  8
STELATT
 10
386.664132
 20
-254.324227
 30
0.0
 40
40.0
  1
IDEAL
 72
     4
 11
619.997465
 21
-234.324227
 31
0.0
  3

  2
MANUFACTURER
 70
     2
  0
LINE
  5
21A
  8
DIMENSIONS
 10
171.844323
 20
0.0
 30
0.0
 11
-545.65559
 21
0.0
 31
0.0
  0
LINE
  5
21B
  8
DIMENSIONS
 10
193.0
 20
1760.0
 30
0.0
 11
-545.65559
 21
1760.0
 31
0.0
  0
LINE
  5
21C
  8
DIMENSIONS
 10
-530.65559
 20
25.0
 30
0.0
 11
-530.65559
 21
1735.0
 31
0.0
  0
SOLID
  5
21D
  8
DIMENSIONS
 10
-534.822257
 20
25.0
 30
0.0
 11
-526.488923
 21
25.0
 31
0.0
 12
-530.65559
 22
0.0
 32
0.0
 13
-530.65559
 23
0.0
 33
0.0
  0
SOLID
  5
21E
  8
DIMENSIONS
 10
-534.822257
 20
1735.0
 30
0.0
 11
-526.488923
 21
1735.0
 31
0.0
 12
-530.65559
 22
1760.0
 32
0.0
 13
-530.65559
 23
1760.0
 33
0.0
  0
TEXT
  5
21F
  8
0
 10
-555.65559
 20
838.333333
 30
0.0
 40
25.0
  1
1760
 50
90.0
  0
POLYLINE
  5
222
  8
DETAIL
 10
796.0
 20
815.0
 30
0.0
 66
     1
 70
     8
  0
VERTEX
  8
DETAIL
  5
316
 10
796.000
 20
815.000
 30
0.000000
  70
    32
  0
VERTEX
  8
DETAIL
  5
317
 10
795.747
 20
824.078
 30
0.000000
  70
    32
  0
VERTEX
  8
DETAIL
  5
318
 10
794.989
 20
833.133
 30
0.000000
  70
    32
  0
VERTEX
  8
DETAIL
  5
319
 10
793.727
 20
842.145
 30
0.000000
  70
    32
  0
VERTEX
  8
DETAIL
  5
31A
 10
791.965
 20
851.092
 30
0.000000
  70
    32
  0
VERTEX
  8
DETAIL
  5
31B
 10
789.707
 20
859.951
 30
0.000000
  70
    32
  0
VERTEX
  8
DETAIL
  5
31C
 10
786.957
 20
868.703
 30
0.000000
  70
    32
  0
VERTEX
  8
DETAIL
  5
31D
 10
783.724
 20
877.325
 30
0.000000
  70
    32
  0
VERTEX
  8
DETAIL
  5
31E
 10
780.015
 20
885.796
 30
0.000000
  70
    32
  0
VERTEX
  8
DETAIL
  5
31F
 10
775.838
 20
894.098
 30
0.000000
  70
    32
  0
VERTEX
  8
DETAIL
  5
320
 10
771.203
 20
902.208
 30
0.000000
  70
    32
  0
VERTEX
  8
DETAIL
  5
321
 10
766.123
 20
910.109
 30
0.000000
  70
    32
  0
VERTEX
  8
DETAIL
  5
322
 10
760.609
 20
917.780
 30
0.000000
  70
    32
  0
VERTEX
  8
DETAIL
  5
323
 10
754.674
 20
925.204
 30
0.000000
  70
    32
  0
VERTEX
  8
DETAIL
  5
324
 10
748.332
 20
932.363
 30
0.000000
  70
    32
  0
VERTEX
  8
DETAIL
  5
325
 10
741.600
 20
939.238
 30
0.000000
  70
    32
  0
VERTEX
  8
DETAIL
  5
326
 10
734.492
 20
945.815
 30
0.000000
  70
    32
  0
VERTEX
  8
DETAIL
  5
327
 10
727.027
 20
952.076
 30
0.000000
  70
    32
  0
VERTEX
  8
DETAIL
  5
328
 10
719.223
 20
958.007
 30
0.000000
  70
    32
  0
VERTEX
  8
DETAIL
  5
329
 10
711.097
 20
963.593
 30
0.000000
  70
    32
  0
VERTEX
  8
DETAIL
  5
32A
 10
702.670
 20
968.822
 30
0.000000
  70
    32
  0
VERTEX
  8
DETAIL
  5
32B
 10
693.962
 20
973.680
 30
0.000000
  70
    32
  0
VERTEX
  8
DETAIL
  5
32C
 10
684.993
 20
978.155
 30
0.000000
  70
    32
  0
VERTEX
  8
DETAIL
  5
32D
 10
675.787
 20
982.238
 30
0.000000
  70
    32
  0
VERTEX
  8
DETAIL
  5
32E
 10
666.364
 20
985.918
 30
0.000000
  70
    32
  0
VERTEX
  8
DETAIL
  5
32F
 10
656.747
 20
989.186
 30
0.000000
  70
    32
  0
VERTEX
  8
DETAIL
  5
330
 10
646.960
 20
992.034
 30
0.000000
  70
    32
  0
VERTEX
  8
DETAIL
  5
331
 10
637.026
 20
994.456
 30
0.000000
  70
    32
  0
VERTEX
  8
DETAIL
  5
332
 10
626.969
 20
996.445
 30
0.000000
  70
    32
  0
VERTEX
  8
DETAIL
  5
333
 10
616.813
 20
997.998
 30
0.000000
  70
    32
  0
VERTEX
  8
DETAIL
  5
334
 10
606.584
 20
999.109
 30
0.000000
  70
    32
  0
VERTEX
  8
DETAIL
  5
335
 10
596.304
 20
999.777
 30
0.000000
  70
    32
  0
VERTEX
  8
DETAIL
  5
336
 10
586.000
 20
1000.00
 30
0.000000
  70
    32
  0
VERTEX
  8
DETAIL
  5
337
 10
575.696
 20
999.777
 30
0.000000
  70
    32
  0
VERTEX
  8
DETAIL
  5
338
 10
565.416
 20
999.109
 30
0.000000
  70
    32
  0
VERTEX
  8
DETAIL
  5
339
 10
555.187
 20
997.998
 30
0.000000
  70
    32
  0
VERTEX
  8
DETAIL
  5
33A
 10
545.031
 20
996.445
 30
0.000000
  70
    32
  0
VERTEX
  8
DETAIL
  5
33B
 10
534.974
 20
994.456
 30
0.000000
  70
    32
  0
VERTEX
  8
DETAIL
  5
33C
 10
525.040
 20
992.034
 30
0.000000
  70
    32
  0
VERTEX
  8
DETAIL
  5
33D
 10
515.253
 20
989.186
 30
0.000000
  70
    32
  0
VERTEX
  8
DETAIL
  5
33E
 10
505.636
 20
985.918
 30
0.000000
  70
    32
  0
VERTEX
  8
DETAIL
  5
33F
 10
496.213
 20
982.238
 30
0.000000
  70
    32
  0
VERTEX
  8
DETAIL
  5
340
 10
487.007
 20
978.155
 30
0.000000
  70
    32
  0
VERTEX
  8
DETAIL
  5
341
 10
478.038
 20
973.680
 30
0.000000
  70
    32
  0
VERTEX
  8
DETAIL
  5
342
 10
469.330
 20
968.822
 30
0.000000
  70
    32
  0
VERTEX
  8
DETAIL
  5
343
 10
460.903
 20
963.593
 30
0.000000
  70
    32
  0
VERTEX
  8
DETAIL
  5
344
 10
452.777
 20
958.007
 30
0.000000
  70
    32
  0
VERTEX
  8
DETAIL
  5
345
 10
444.973
 20
952.076
 30
0.000000
  70
    32
  0
VERTEX
  8
DETAIL
  5
346
 10
437.508
 20
945.815
 30
0.000000
  70
    32
  0
VERTEX
  8
DETAIL
  5
347
 10
430.400
 20
939.238
 30
0.000000
  70
    32
  0
VERTEX
  8
DETAIL
  5
348
 10
423.668
 20
932.363
 30
0.000000
  70
    32
  0
VERTEX
  8
DETAIL
  5
349
 10
417.326
 20
925.204
 30
0.000000
  70
    32
  0
VERTEX
  8
DETAIL
  5
34A
 10
411.391
 20
917.780
 30
0.000000
  70
    32
  0
VERTEX
  8
DETAIL
  5
34B
 10
405.877
 20
910.109
 30
0.000000
  70
    32
  0
VERTEX
  8
DETAIL
  5
34C
 10
400.797
 20
902.208
 30
0.000000
  70
    32
  0
VERTEX
  8
DETAIL
  5
34D
 10
396.162
 20
894.098
 30
0.000000
  70
    32
  0
VERTEX
  8
DETAIL
  5
34E
 10
391.985
 20
885.796
 30
0.000000
  70
    32
  0
VERTEX
  8
DETAIL
  5
34F
 10
388.276
 20
877.325
 30
0.000000
  70
    32
  0
VERTEX
  8
DETAIL
  5
350
 10
385.043
 20
868.703
 30
0.000000
  70
    32
  0
VERTEX
  8
DETAIL
  5
351
 10
382.293
 20
859.951
 30
0.000000
  70
    32
  0
VERTEX
  8
DETAIL
  5
352
 10
380.035
 20
851.092
 30
0.000000
  70
    32
  0
VERTEX
  8
DETAIL
  5
353
 10
378.273
 20
842.145
 30
0.000000
  70
    32
  0
VERTEX
  8
DETAIL
  5
354
 10
377.011
 20
833.133
 30
0.000000
  70
    32
  0
VERTEX
  8
DETAIL
  5
355
 10
376.253
 20
824.078
 30
0.000000
  70
    32
  0
VERTEX
  8
DETAIL
  5
356
 10
376.000
 20
815.000
 30
0.000000
  70
    32
  0
VERTEX
  8
DETAIL
  5
357
 10
376.253
 20
805.922
 30
0.000000
  70
    32
  0
VERTEX
  8
DETAIL
  5
358
 10
377.011
 20
796.867
 30
0.000000
  70
    32
  0
VERTEX
  8
DETAIL
  5
359
 10
378.273
 20
787.855
 30
0.000000
  70
    32
  0
VERTEX
  8
DETAIL
  5
35A
 10
380.035
 20
778.908
 30
0.000000
  70
    32
  0
VERTEX
  8
DETAIL
  5
35B
 10
382.293
 20
770.049
 30
0.000000
  70
    32
  0
VERTEX
  8
DETAIL
  5
35C
 10
385.043
 20
761.297
 30
0.000000
  70
    32
  0
VERTEX
  8
DETAIL
  5
35D
 10
388.276
 20
752.675
 30
0.000000
  70
    32
  0
VERTEX
  8
DETAIL
  5
35E
 10
391.985
 20
744.204
 30
0.000000
  70
    32
  0
VERTEX
  8
DETAIL
  5
35F
 10
396.162
 20
735.902
 30
0.000000
  70
    32
  0
VERTEX
  8
DETAIL
  5
360
 10
400.797
 20
727.792
 30
0.000000
  70
    32
  0
VERTEX
  8
DETAIL
  5
361
 10
405.877
 20
719.891
 30
0.000000
  70
    32
  0
VERTEX
  8
DETAIL
  5
362
 10
411.391
 20
712.220
 30
0.000000
  70
    32
  0
VERTEX
  8
DETAIL
  5
363
 10
417.326
 20
704.796
 30
0.000000
  70
    32
  0
VERTEX
  8
DETAIL
  5
364
 10
423.668
 20
697.637
 30
0.000000
  70
    32
  0
VERTEX
  8
DETAIL
  5
365
 10
430.400
 20
690.762
 30
0.000000
  70
    32
  0
VERTEX
  8
DETAIL
  5
366
 10
437.508
 20
684.185
 30
0.000000
  70
    32
  0
VERTEX
  8
DETAIL
  5
367
 10
444.973
 20
677.924
 30
0.000000
  70
    32
  0
VERTEX
  8
DETAIL
  5
368
 10
452.777
 20
671.993
 30
0.000000
  70
    32
  0
VERTEX
  8
DETAIL
  5
369
 10
460.903
 20
666.407
 30
0.000000
  70
    32
  0
VERTEX
  8
DETAIL
  5
36A
 10
469.330
 20
661.178
 30
0.000000
  70
    32
  0
VERTEX
  8
DETAIL
  5
36B
 10
478.038
 20
656.320
 30
0.000000
  70
    32
  0
VERTEX
  8
DETAIL
  5
36C
 10
487.007
 20
651.845
 30
0.000000
  70
    32
  0
VERTEX
  8
DETAIL
  5
36D
 10
496.213
 20
647.762
 30
0.000000
  70
    32
  0
VERTEX
  8
DETAIL
  5
36E
 10
505.636
 20
644.082
 30
0.000000
  70
    32
  0
VERTEX
  8
DETAIL
  5
36F
 10
515.253
 20
640.814
 30
0.000000
  70
    32
  0
VERTEX
  8
DETAIL
  5
370
 10
525.040
 20
637.966
 30
0.000000
  70
    32
  0
VERTEX
  8
DETAIL
  5
371
 10
534.974
 20
635.544
 30
0.000000
  70
    32
  0
VERTEX
  8
DETAIL
  5
372
 10
545.031
 20
633.555
 30
0.000000
  70
    32
  0
VERTEX
  8
DETAIL
  5
373
 10
555.187
 20
632.002
 30
0.000000
  70
    32
  0
VERTEX
  8
DETAIL
  5
374
 10
565.416
 20
630.891
 30
0.000000
  70
    32
  0
VERTEX
  8
DETAIL
  5
375
 10
575.696
 20
630.223
 30
0.000000
  70
    32
  0
VERTEX
  8
DETAIL
  5
376
 10
586.000
 20
630.000
 30
0.000000
  70
    32
  0
VERTEX
  8
DETAIL
  5
377
 10
596.304
 20
630.223
 30
0.000000
  70
    32
  0
VERTEX
  8
DETAIL
  5
378
 10
606.584
 20
630.891
 30
0.000000
  70
    32
  0
VERTEX
  8
DETAIL
  5
379
 10
616.813
 20
632.002
 30
0.000000
  70
    32
  0
VERTEX
  8
DETAIL
  5
37A
 10
626.969
 20
633.555
 30
0.000000
  70
    32
  0
VERTEX
  8
DETAIL
  5
37B
 10
637.026
 20
635.544
 30
0.000000
  70
    32
  0
VERTEX
  8
DETAIL
  5
37C
 10
646.960
 20
637.966
 30
0.000000
  70
    32
  0
VERTEX
  8
DETAIL
  5
37D
 10
656.747
 20
640.814
 30
0.000000
  70
    32
  0
VERTEX
  8
DETAIL
  5
37E
 10
666.364
 20
644.082
 30
0.000000
  70
    32
  0
VERTEX
  8
DETAIL
  5
37F
 10
675.787
 20
647.762
 30
0.000000
  70
    32
  0
VERTEX
  8
DETAIL
  5
380
 10
684.993
 20
651.845
 30
0.000000
  70
    32
  0
VERTEX
  8
DETAIL
  5
381
 10
693.962
 20
656.320
 30
0.000000
  70
    32
  0
VERTEX
  8
DETAIL
  5
382
 10
702.670
 20
661.178
 30
0.000000
  70
    32
  0
VERTEX
  8
DETAIL
  5
383
 10
711.097
 20
666.407
 30
0.000000
  70
    32
  0
VERTEX
  8
DETAIL
  5
384
 10
719.223
 20
671.993
 30
0.000000
  70
    32
  0
VERTEX
  8
DETAIL
  5
385
 10
727.027
 20
677.924
 30
0.000000
  70
    32
  0
VERTEX
  8
DETAIL
  5
386
 10
734.492
 20
684.185
 30
0.000000
  70
    32
  0
VERTEX
  8
DETAIL
  5
387
 10
741.600
 20
690.762
 30
0.000000
  70
    32
  0
VERTEX
  8
DETAIL
  5
388
 10
748.332
 20
697.637
 30
0.000000
  70
    32
  0
VERTEX
  8
DETAIL
  5
389
 10
754.674
 20
704.796
 30
0.000000
  70
    32
  0
VERTEX
  8
DETAIL
  5
38A
 10
760.609
 20
712.220
 30
0.000000
  70
    32
  0
VERTEX
  8
DETAIL
  5
38B
 10
766.123
 20
719.891
 30
0.000000
  70
    32
  0
VERTEX
  8
DETAIL
  5
38C
 10
771.203
 20
727.792
 30
0.000000
  70
    32
  0
VERTEX
  8
DETAIL
  5
38D
 10
775.838
 20
735.902
 30
0.000000
  70
    32
  0
VERTEX
  8
DETAIL
  5
38E
 10
780.015
 20
744.204
 30
0.000000
  70
    32
  0
VERTEX
  8
DETAIL
  5
38F
 10
783.724
 20
752.675
 30
0.000000
  70
    32
  0
VERTEX
  8
DETAIL
  5
390
 10
786.957
 20
761.297
 30
0.000000
  70
    32
  0
VERTEX
  8
DETAIL
  5
391
 10
789.707
 20
770.049
 30
0.000000
  70
    32
  0
VERTEX
  8
DETAIL
  5
392
 10
791.965
 20
778.908
 30
0.000000
  70
    32
  0
VERTEX
  8
DETAIL
  5
393
 10
793.727
 20
787.855
 30
0.000000
  70
    32
  0
VERTEX
  8
DETAIL
  5
394
 10
794.989
 20
796.867
 30
0.000000
  70
    32
  0
VERTEX
  8
DETAIL
  5
395
 10
795.747
 20
805.922
 30
0.000000
  70
    32
  0
VERTEX
  8
DETAIL
  5
396
 10
796.000
 20
815.000
 30
0.000000
  70
    32
  0
SEQEND
  8
DETAIL
  5
397
  0
LINE
  5
229
  8
DIMENSIONS
 10
0.0
 20
1592.0
 30
0.0
 11
0.0
 21
1895.026693
 31
0.0
  0
LINE
  5
22A
  8
DIMENSIONS
 10
208.0
 20
1735.194822
 30
0.0
 11
208.0
 21
1895.026693
 31
0.0
  0
LINE
  5
22B
  8
DIMENSIONS
 10
25.0
 20
1880.026693
 30
0.0
 11
183.0
 21
1880.026693
 31
0.0
  0
SOLID
  5
22C
  8
DIMENSIONS
 10
25.0
 20
1884.193359
 30
0.0
 11
25.0
 21
1875.860026
 31
0.0
 12
0.0
 22
1880.026693
 32
0.0
 13
0.0
 23
1880.026693
 33
0.0
  0
SOLID
  5
22D
  8
DIMENSIONS
 10
183.0
 20
1884.193359
 30
0.0
 11
183.0
 21
1875.860026
 31
0.0
 12
208.0
 22
1880.026693
 32
0.0
 13
208.0
 23
1880.026693
 33
0.0
  0
TEXT
  5
22E
  8
0
 10
42.095238
 20
1905.026693
 30
0.0
 40
25.0
  1
208.00
  0
LINE
  5
22F
  8
DIMENSIONS
 10
964.0
 20
1698.005076
 30
0.0
 11
964.0
 21
1895.026693
 31
0.0
  0
LINE
  5
230
  8
DIMENSIONS
 10
1172.0
 20
1698.005076
 30
0.0
 11
1172.0
 21
1895.026693
 31
0.0
  0
LINE
  5
231
  8
DIMENSIONS
 10
989.0
 20
1880.026693
 30
0.0
 11
1147.0
 21
1880.026693
 31
0.0
  0
SOLID
  5
232
  8
DIMENSIONS
 10
989.0
 20
1884.193359
 30
0.0
 11
989.0
 21
1875.860026
 31
0.0
 12
964.0
 22
1880.026693
 32
0.0
 13
964.0
 23
1880.026693
 33
0.0
  0
SOLID
  5
233
  8
DIMENSIONS
 10
1147.0
 20
1884.193359
 30
0.0
 11
1147.0
 21
1875.860026
 31
0.0
 12
1172.0
 22
1880.026693
 32
0.0
 13
1172.0
 23
1880.026693
 33
0.0
  0
TEXT
  5
234
  8
0
 10
1006.095238
 20
1905.026693
 30
0.0
 40
25.0
  1
208.00
  0
CIRCLE
  5
26C
  8
DETAIL
  6
DASHED
 10
586.0
 20
815.0
 30
0.0
 40
225.0
  0
ENDSEC
  0
EOF
