  0
SECTION
  2
HEADER
  9
$ACADVER
  1
AC1009
  9
$INSBASE
 10
0.0
 20
0.0
 30
0.0
  9
$EXTMIN
 10
-1200.188536
 20
-394.34733
 30
0.0
  9
$EXTMAX
 10
2108.449018
 20
2212.064696
 30
0.0
  9
$LIMMIN
 10
0.0
 20
0.0
  9
$LIMMAX
 10
420.0
 20
297.0
  9
$ORTHOMODE
 70
     1
  9
$REGENMODE
 70
     1
  9
$FILLMODE
 70
     1
  9
$QTEXTMODE
 70
     0
  9
$MIRRTEXT
 70
     0
  9
$DRAGMODE
 70
     2
  9
$LTSCALE
 40
25.0
  9
$OSMODE
 70
     0
  9
$ATTMODE
 70
     1
  9
$TEXTSIZE
 40
3.0
  9
$TRACEWID
 40
10.0
  9
$TEXTSTYLE
  7
STANDARD
  9
$CLAYER
  8
0
  9
$CELTYPE
  6
BYLAYER
  9
$CECOLOR
 62
   256
  9
$DIMSCALE
 40
1.0
  9
$DIMASZ
 40
25.0
  9
$DIMEXO
 40
15.0
  9
$DIMDLI
 40
10.0
  9
$DIMRND
 40
0.0
  9
$DIMDLE
 40
1.25
  9
$DIMEXE
 40
15.0
  9
$DIMTP
 40
0.0
  9
$DIMTM
 40
0.0
  9
$DIMTXT
 40
25.0
  9
$DIMCEN
 40
-3.0
  9
$DIMTSZ
 40
0.0
  9
$DIMTOL
 70
     0
  9
$DIMLIM
 70
     0
  9
$DIMTIH
 70
     0
  9
$DIMTOH
 70
     0
  9
$DIMSE1
 70
     0
  9
$DIMSE2
 70
     0
  9
$DIMTAD
 70
     0
  9
$DIMZIN
 70
     1
  9
$DIMBLK
  1

  9
$DIMASO
 70
     0
  9
$DIMSHO
 70
     0
  9
$DIMPOST
  1

  9
$DIMAPOST
  1

  9
$DIMALT
 70
     0
  9
$DIMALTD
 70
     2
  9
$DIMALTF
 40
0.039
  9
$DIMLFAC
 40
1.0
  9
$DIMTOFL
 70
     0
  9
$DIMTVP
 40
1.5
  9
$DIMTIX
 70
     0
  9
$DIMSOXD
 70
     0
  9
$DIMSAH
 70
     0
  9
$DIMBLK1
  1

  9
$DIMBLK2
  1

  9
$DIMSTYLE
  2
STANDARD
  9
$DIMCLRD
 70
     0
  9
$DIMCLRE
 70
     0
  9
$DIMCLRT
 70
     0
  9
$DIMTFAC
 40
1.0
  9
$DIMGAP
 40
0.09
  9
$LUNITS
 70
     2
  9
$LUPREC
 70
     2
  9
$SKETCHINC
 40
1.0
  9
$FILLETRAD
 40
0.0
  9
$AUNITS
 70
     0
  9
$AUPREC
 70
     4
  9
$MENU
  1
acad
  9
$ELEVATION
 40
0.0
  9
$PELEVATION
 40
0.0
  9
$THICKNESS
 40
0.0
  9
$LIMCHECK
 70
     0
  9
$BLIPMODE
 70
     0
  9
$CHAMFERA
 40
66.0
  9
$CHAMFERB
 40
66.0
  9
$SKPOLY
 70
     1
  9
$TDCREATE
 40
2450085.673773
  9
$TDUPDATE
 40
2453073.5349
  9
$TDINDWG
 40
0.276462
  9
$TDUSRTIMER
 40
0.276462
  9
$USRTIMER
 70
     1
  9
$ANGBASE
 50
0.0
  9
$ANGDIR
 70
     0
  9
$PDMODE
 70
     3
  9
$PDSIZE
 40
0.0
  9
$PLINEWID
 40
0.0
  9
$COORDS
 70
     1
  9
$SPLFRAME
 70
     0
  9
$SPLINETYPE
 70
     6
  9
$SPLINESEGS
 70
     6
  9
$ATTDIA
 70
     0
  9
$ATTREQ
 70
     1
  9
$HANDLING
 70
 22529
  9
$HANDSEED
  5
414
  9
$SURFTAB1
 70
    12
  9
$SURFTAB2
 70
    12
  9
$SURFTYPE
 70
     6
  9
$SURFU
 70
    12
  9
$SURFV
 70
    12
  9
$UCSNAME
  2

  9
$UCSORG
 10
0.0
 20
0.0
 30
0.0
  9
$UCSXDIR
 10
1.0
 20
0.0
 30
0.0
  9
$UCSYDIR
 10
0.0
 20
1.0
 30
0.0
  9
$PUCSNAME
  2

  9
$PUCSORG
 10
0.0
 20
0.0
 30
0.0
  9
$PUCSXDIR
 10
1.0
 20
0.0
 30
0.0
  9
$PUCSYDIR
 10
0.0
 20
1.0
 30
0.0
  9
$USERI1
 70
     0
  9
$USERI2
 70
     0
  9
$USERI3
 70
     0
  9
$USERI4
 70
     0
  9
$USERI5
 70
     0
  9
$USERR1
 40
0.0
  9
$USERR2
 40
0.0
  9
$USERR3
 40
0.0
  9
$USERR4
 40
0.0
  9
$USERR5
 40
0.0
  9
$WORLDVIEW
 70
     0
  9
$SHADEDGE
 70
     3
  9
$SHADEDIF
 70
    70
  9
$TILEMODE
 70
     1
  9
$MAXACTVP
 70
    16
  9
$PLIMCHECK
 70
     0
  9
$PEXTMIN
 10
1.000000E+020
 20
1.000000E+020
 30
1.000000E+020
  9
$PEXTMAX
 10
-1.000000E+020
 20
-1.000000E+020
 30
-1.000000E+020
  9
$PLIMMIN
 10
0.0
 20
0.0
  9
$PLIMMAX
 10
12.0
 20
9.0
  9
$UNITMODE
 70
     0
  9
$VISRETAIN
 70
     0
  9
$PLINEGEN
 70
     0
  9
$PSLTSCALE
 70
     0
  0
ENDSEC
  0
SECTION
  2
TABLES
  0
TABLE
  2
VPORT
 70
     2
  0
VPORT
  2
*ACTIVE
 70
     0
 10
0.0
 20
0.0
 11
1.0
 21
1.0
 12
454.130241
 22
908.858683
 13
0.0
 23
0.0
 14
10.0
 24
10.0
 15
0.0
 25
0.0
 16
0.0
 26
0.0
 36
1.0
 17
0.0
 27
0.0
 37
0.0
 40
2636.428288
 41
1.825
 42
50.0
 43
0.0
 44
0.0
 50
0.0
 51
0.0
 71
     0
 72
 20000
 73
     1
 74
     2
 75
     0
 76
     0
 77
     0
 78
     2
  0
ENDTAB
  0
TABLE
  2
LTYPE
 70
     3
  0
LTYPE
  2
CONTINUOUS
 70
     0
  3
Solid line
 72
    65
 73
     0
 40
0.0
  0
LTYPE
  2
CENTER
 70
     0
  3
____ _ ____ _ ____ _ ____ _ ____ _ ____ _ ____
 72
    65
 73
     4
 40
2.0
 49
1.25
 49
-0.25
 49
0.25
 49
-0.25
  0
LTYPE
  2
DASHED
 70
     0
  3
__ __ __ __ __ __ __ __ __ __ __ __ __ __ __
 72
    65
 73
     2
 40
0.75
 49
0.5
 49
-0.25
  0
ENDTAB
  0
TABLE
  2
LAYER
 70
     8
  0
LAYER
  2
0
 70
     0
 62
     7
  6
CONTINUOUS
  0
LAYER
  2
DETAIL
 70
     0
 62
     2
  6
CONTINUOUS
  0
LAYER
  2
DIMENSIONS
 70
     0
 62
     7
  6
CONTINUOUS
  0
LAYER
  2
CENTER
 70
     0
 62
     4
  6
CENTER
  0
LAYER
  2
ORIGIN
 70
     0
 62
     6
  6
CONTINUOUS
  0
LAYER
  2
PLANNING
 70
     0
 62
     1
  6
DASHED
  0
LAYER
  2
STELTXT
 70
     0
 62
     4
  6
CONTINUOUS
  0
LAYER
  2
STELATT
 70
     0
 62
     7
  6
CONTINUOUS
  0
ENDTAB
  0
TABLE
  2
STYLE
 70
     1
  0
STYLE
  2
STANDARD
 70
     0
 40
0.0
 41
1.0
 50
0.0
 71
     0
 42
3.0
  3
simplex
  4

  0
ENDTAB
  0
TABLE
  2
VIEW
 70
     0
  0
ENDTAB
  0
TABLE
  2
UCS
 70
     0
  0
ENDTAB
  0
TABLE
  2
APPID
 70
     1
  0
APPID
  2
ACAD
 70
     0
  0
ENDTAB
  0
TABLE
  2
DIMSTYLE
 70
     1
  0
DIMSTYLE
  2
STANDARD
 70
     0
  3

  4

  5

  6

  7

 40
1.0
 41
0.18
 42
0.0625
 43
0.38
 44
0.18
 45
0.0
 46
0.0
 47
0.0
 48
0.0
140
0.18
141
0.09
142
0.0
143
25.4
144
1.0
145
0.0
146
1.0
147
0.09
 71
     0
 72
     0
 73
     1
 74
     1
 75
     0
 76
     0
 77
     0
 78
     0
170
     0
171
     2
172
     0
173
     0
174
     0
175
     0
176
     0
177
     0
178
     0
  0
ENDTAB
  0
ENDSEC
  0
SECTION
  2
BLOCKS
  0
BLOCK
  8
0
  2
$MODEL_SPACE
 70
     0
 10
0.0
 20
0.0
 30
0.0
  3
$MODEL_SPACE
  1

  0
ENDBLK
  5
1D8
  8
0
  0
BLOCK
 67
     1
  8
0
  2
$PAPER_SPACE
 70
     0
 10
0.0
 20
0.0
 30
0.0
  3
$PAPER_SPACE
  1

  0
ENDBLK
  5
1D6
 67
     1
  8
0
  0
ENDSEC
  0
SECTION
  2
ENTITIES
  0
LINE
  5
1E
  8
STELTXT
 10
777.301415
 20
320.664651
 30
0.0
 11
1473.583264
 21
320.664651
 31
0.0
  0
LINE
  5
20
  8
STELTXT
 10
777.301415
 20
231.207399
 30
0.0
 11
1473.583264
 21
231.207399
 31
0.0
  0
LINE
  5
21
  8
STELTXT
 10
803.579601
 20
453.112955
 30
0.0
 11
1473.583264
 21
453.112955
 31
0.0
  0
LINE
  5
22
  8
STELTXT
 10
823.949674
 20
1049.494697
 30
0.0
 11
1473.583264
 21
1049.494697
 31
0.0
  0
LINE
  5
24
  8
STELTXT
 10
803.579601
 20
661.846574
 30
0.0
 11
1473.583264
 21
661.846574
 31
0.0
  0
LINE
  5
25
  8
DIMENSIONS
 10
801.290866
 20
145.0
 30
0.0
 11
1324.647204
 21
145.0
 31
0.0
  0
LINE
  5
29
  8
DIMENSIONS
 10
1147.0
 20
1954.95197
 30
0.0
 11
611.0
 21
1954.95197
 31
0.0
  0
LINE
  5
2A
  8
DIMENSIONS
 10
25.0
 20
2161.902387
 30
0.0
 11
1147.0
 21
2161.902387
 31
0.0
  0
LINE
  5
2D
  8
CENTER
 10
834.132756
 20
815.0
 30
0.0
 11
337.867244
 21
815.0
 31
0.0
  0
LINE
  5
30
  8
CENTER
 10
913.943359
 20
791.0
 30
0.0
 11
258.056641
 21
791.0
 31
0.0
  0
LINE
  5
33
  8
DETAIL
 10
929.216707
 20
1613.000049
 30
0.0
 11
242.783293
 21
1613.000049
 31
0.0
  0
LINE
  5
34
  8
DETAIL
 10
242.783293
 20
1713.141719
 30
0.0
 11
929.216707
 21
1713.141719
 31
0.0
  0
LINE
  5
35
  8
DETAIL
 10
242.783293
 20
1744.461315
 30
0.0
 11
929.216707
 21
1744.461315
 31
0.0
  0
LINE
  5
36
  8
DETAIL
 10
242.783293
 20
1546.927275
 30
0.0
 11
929.216707
 21
1546.927275
 31
0.0
  0
LINE
  5
37
  8
DETAIL
 10
929.216707
 20
1581.680453
 30
0.0
 11
242.783293
 21
1581.680453
 31
0.0
  0
LINE
  5
38
  8
DETAIL
 10
0.0
 20
1533.524249
 30
0.0
 11
1172.0
 21
1533.524249
 31
0.0
  0
LINE
  5
39
  8
DETAIL
 10
208.0
 20
1760.0
 30
0.0
 11
964.0
 21
1760.0
 31
0.0
  0
LINE
  5
3A
  8
PLANNING
 10
1672.0
 20
0.0
 30
0.0
 11
-1200.0
 21
0.0
 31
0.0
  0
LINE
  5
3B
  8
DETAIL
 10
1172.0
 20
35.0
 30
0.0
 11
0.0
 21
35.0
 31
0.0
  0
LINE
  5
3C
  8
DETAIL
 10
0.0
 20
1566.0
 30
0.0
 11
1172.0
 21
1566.0
 31
0.0
  0
LINE
  5
3E
  8
DIMENSIONS
 10
-259.712055
 20
1255.0
 30
0.0
 11
-259.712055
 21
25.0
 31
0.0
  0
LINE
  5
40
  8
DIMENSIONS
  6
CONTINUOUS
 10
-317.396889
 20
1463.0
 30
0.0
 11
-317.396889
 21
25.0
 31
0.0
  0
LINE
  5
42
  8
CENTER
 10
586.0
 20
463.056641
 30
0.0
 11
586.0
 21
1118.943359
 31
0.0
  0
LINE
  5
44
  8
DETAIL
 10
0.0
 20
35.0
 30
0.0
 11
0.0
 21
1566.0
 31
0.0
  0
LINE
  5
45
  8
DIMENSIONS
 10
493.15307
 20
150.0
 30
0.0
 11
-38.53425
 21
150.0
 31
0.0
  0
LINE
  5
46
  8
DIMENSIONS
 10
493.15307
 20
200.0
 30
0.0
 11
-97.268666
 21
200.0
 31
0.0
  0
LINE
  5
47
  8
DIMENSIONS
 10
117.272025
 20
0.0
 30
0.0
 11
-434.79883
 21
0.0
 31
0.0
  0
LINE
  5
48
  8
DIMENSIONS
 10
311.215319
 20
815.0
 30
0.0
 11
-213.594207
 21
815.0
 31
0.0
  0
LINE
  5
49
  8
DIMENSIONS
 10
184.796984
 20
791.0
 30
0.0
 11
-154.201095
 21
791.0
 31
0.0
  0
POLYLINE
  5
4A
  8
ORIGIN
 66
     1
 10
0.0
 20
0.0
 30
0.0
  0
VERTEX
  5
36E
  8
ORIGIN
 10
0.0
 20
0.0
 30
0.0
  0
VERTEX
  5
36F
  8
ORIGIN
 10
-100.0
 20
-100.0
 30
0.0
  0
VERTEX
  5
370
  8
ORIGIN
 10
-100.0
 20
100.0
 30
0.0
  0
VERTEX
  5
371
  8
ORIGIN
 10
100.0
 20
-100.0
 30
0.0
  0
VERTEX
  5
372
  8
ORIGIN
 10
100.0
 20
100.0
 30
0.0
  0
VERTEX
  5
373
  8
ORIGIN
 10
0.0
 20
0.0
 30
0.0
  0
SEQEND
  5
374
  8
ORIGIN
  0
POLYLINE
  5
53
  8
ORIGIN
 66
     1
 10
0.0
 20
0.0
 30
0.0
  0
VERTEX
  5
375
  8
ORIGIN
 10
0.0
 20
0.0
 30
0.0
  0
VERTEX
  5
376
  8
ORIGIN
 10
-100.0
 20
-100.0
 30
0.0
  0
VERTEX
  5
377
  8
ORIGIN
 10
-100.0
 20
100.0
 30
0.0
  0
VERTEX
  5
378
  8
ORIGIN
 10
100.0
 20
-100.0
 30
0.0
  0
VERTEX
  5
379
  8
ORIGIN
 10
100.0
 20
100.0
 30
0.0
  0
VERTEX
  5
37A
  8
ORIGIN
 10
0.0
 20
0.0
 30
0.0
  0
SEQEND
  5
37B
  8
ORIGIN
  0
LINE
  5
5B
  8
DIMENSIONS
 10
-198.594207
 20
790.0
 30
0.0
 11
-198.594207
 21
25.0
 31
0.0
  0
LINE
  5
5C
  8
DIMENSIONS
 10
-139.201095
 20
766.0
 30
0.0
 11
-139.201095
 21
25.0
 31
0.0
  0
SOLID
  5
5F
  8
DIMENSIONS
  6
CONTINUOUS
 10
-321.563556
 20
25.0
 30
0.0
 11
-313.230222
 21
25.0
 31
0.0
 12
-317.396889
 22
0.0
 32
0.0
 13
-317.396889
 23
0.0
 33
0.0
  0
LINE
  5
61
  8
DIMENSIONS
  6
CONTINUOUS
 10
-307.261002
 20
0.0
 30
0.0
 11
-302.396889
 21
0.0
 31
0.0
  0
SOLID
  5
62
  8
DIMENSIONS
 10
-263.878721
 20
25.0
 30
0.0
 11
-255.545388
 21
25.0
 31
0.0
 12
-259.712055
 22
0.0
 32
0.0
 13
-259.712055
 23
0.0
 33
0.0
  0
LINE
  5
63
  8
DIMENSIONS
 10
-82.268666
 20
175.0
 30
0.0
 11
-82.268666
 21
25.0
 31
0.0
  0
TEXT
  5
64
  8
DIMENSIONS
 10
-89.958979
 20
67.857143
 30
0.0
 40
25.0
  1
200
 50
90.0
 72
     1
 11
-102.458979
 21
100.0
 31
0.0
 73
     2
  0
SOLID
  5
65
  8
DIMENSIONS
 10
-202.760874
 20
25.0
 30
0.0
 11
-194.42754
 21
25.0
 31
0.0
 12
-198.594207
 22
0.0
 32
0.0
 13
-198.594207
 23
0.0
 33
0.0
  0
SOLID
  5
66
  8
DIMENSIONS
 10
-143.367762
 20
25.0
 30
0.0
 11
-135.034429
 21
25.0
 31
0.0
 12
-139.201095
 22
0.0
 32
0.0
 13
-139.201095
 23
0.0
 33
0.0
  0
LINE
  5
67
  8
DIMENSIONS
 10
-23.53425
 20
125.0
 30
0.0
 11
-23.53425
 21
25.0
 31
0.0
  0
TEXT
  5
68
  8
DIMENSIONS
 10
-32.884499
 20
45.238095
 30
0.0
 40
25.0
  1
150
 50
90.0
 72
     1
 11
-45.384499
 21
75.0
 31
0.0
 73
     2
  0
SOLID
  5
69
  8
DIMENSIONS
 10
-86.435332
 20
25.0
 30
0.0
 11
-78.101999
 21
25.0
 31
0.0
 12
-82.268666
 22
0.0
 32
0.0
 13
-82.268666
 23
0.0
 33
0.0
  0
SOLID
  5
6A
  8
DIMENSIONS
 10
-27.700917
 20
25.0
 30
0.0
 11
-19.367584
 21
25.0
 31
0.0
 12
-23.53425
 22
0.0
 32
0.0
 13
-23.53425
 23
0.0
 33
0.0
  0
SOLID
  5
6B
  8
DIMENSIONS
 10
-27.700917
 20
125.0
 30
0.0
 11
-19.367584
 21
125.0
 31
0.0
 12
-23.53425
 22
150.0
 32
0.0
 13
-23.53425
 23
150.0
 33
0.0
  0
SOLID
  5
6C
  8
DIMENSIONS
 10
-86.435332
 20
175.0
 30
0.0
 11
-78.101999
 21
175.0
 31
0.0
 12
-82.268666
 22
200.0
 32
0.0
 13
-82.268666
 23
200.0
 33
0.0
  0
TEXT
  5
6E
  8
DIMENSIONS
 10
-205.707528
 20
377.738095
 30
0.0
 40
25.0
  1
815
 50
90.0
 72
     1
 11
-218.207528
 21
407.5
 31
0.0
 73
     2
  0
TEXT
  5
6F
  8
DIMENSIONS
 10
-267.925566
 20
598.333333
 30
0.0
 40
25.0
  1
1280
 50
90.0
 72
     1
 11
-280.425566
 21
640.0
 31
0.0
 73
     2
  0
TEXT
  5
70
  8
DIMENSIONS
 10
-147.097481
 20
368.714286
 30
0.0
 40
25.0
  1
791
 50
90.0
 72
     1
 11
-159.597481
 21
395.5
 31
0.0
 73
     2
  0
TEXT
  5
72
  8
DIMENSIONS
  6
CONTINUOUS
 10
-324.936302
 20
702.333333
 30
0.0
 40
25.0
  1
1488
 50
90.0
  0
SOLID
  5
73
  8
DIMENSIONS
 10
-143.367762
 20
766.0
 30
0.0
 11
-135.034429
 21
766.0
 31
0.0
 12
-139.201095
 22
791.0
 32
0.0
 13
-139.201095
 23
791.0
 33
0.0
  0
SOLID
  5
74
  8
DIMENSIONS
 10
-202.760874
 20
790.0
 30
0.0
 11
-194.42754
 21
790.0
 31
0.0
 12
-198.594207
 22
815.0
 32
0.0
 13
-198.594207
 23
815.0
 33
0.0
  0
LINE
  5
75
  8
STELTXT
 10
613.166208
 20
235.129833
 30
0.0
 11
803.579601
 21
453.112955
 31
0.0
  0
TEXT
  5
79
  8
DIMENSIONS
 10
628.738095
 20
-47.340435
 30
0.0
 40
25.0
  1
145
 72
     1
 11
658.5
 21
-34.840435
 31
0.0
 73
     2
  0
LINE
  5
7A
  8
DIMENSIONS
 10
731.0
 20
74.709134
 30
0.0
 11
731.0
 21
-87.340435
 31
0.0
  0
LINE
  5
7B
  8
DIMENSIONS
 10
586.0
 20
57.15307
 30
0.0
 11
586.0
 21
-87.340435
 31
0.0
  0
SOLID
  5
7C
  8
DIMENSIONS
 10
611.0
 20
-68.173769
 30
0.0
 11
611.0
 21
-76.507102
 31
0.0
 12
586.0
 22
-72.340435
 32
0.0
 13
586.0
 23
-72.340435
 33
0.0
  0
LINE
  5
7D
  8
DIMENSIONS
 10
611.0
 20
-72.340435
 30
0.0
 11
706.0
 21
-72.340435
 31
0.0
  0
SOLID
  5
7E
  8
DIMENSIONS
 10
706.0
 20
-68.173769
 30
0.0
 11
706.0
 21
-76.507102
 31
0.0
 12
731.0
 22
-72.340435
 32
0.0
 13
731.0
 23
-72.340435
 33
0.0
  0
SOLID
  5
7F
  8
STELTXT
 10
616.304239
 20
232.388688
 30
0.0
 11
610.028177
 21
237.870977
 31
0.0
 12
596.719343
 22
216.301645
 32
0.0
 13
596.719343
 23
216.301645
 33
0.0
  0
LINE
  5
80
  8
CENTER
 10
663.84693
 20
200.0
 30
0.0
 11
508.15307
 21
200.0
 31
0.0
  0
CIRCLE
  5
81
  8
DETAIL
 10
586.0
 20
150.0
 30
0.0
 40
25.4
  0
LINE
  5
82
  8
CENTER
 10
663.84693
 20
150.0
 30
0.0
 11
508.15307
 21
150.0
 31
0.0
  0
LINE
  5
83
  8
CENTER
 10
586.0
 20
72.15307
 30
0.0
 11
586.0
 21
277.84693
 31
0.0
  0
LINE
  5
84
  8
CENTER
 10
731.0
 20
89.709134
 30
0.0
 11
731.0
 21
200.290866
 31
0.0
  0
LINE
  5
85
  8
CENTER
 10
786.290866
 20
145.0
 30
0.0
 11
675.709134
 21
145.0
 31
0.0
  0
LINE
  5
86
  8
STELTXT
 10
629.810954
 20
181.288997
 30
0.0
 11
777.301415
 21
320.664651
 31
0.0
  0
SOLID
  5
87
  8
STELTXT
 10
632.672743
 20
178.260586
 30
0.0
 11
626.949164
 21
184.317407
 31
0.0
 12
611.64049
 22
164.118258
 32
0.0
 13
611.64049
 23
164.118258
 33
0.0
  0
LINE
  5
88
  8
STELTXT
 10
750.019931
 20
178.83556
 30
0.0
 11
777.301415
 21
231.207399
 31
0.0
  0
SOLID
  5
89
  8
STELTXT
 10
753.715277
 20
176.910584
 30
0.0
 11
746.324585
 21
180.760535
 31
0.0
 12
738.470077
 22
156.663485
 32
0.0
 13
738.470077
 23
156.663485
 33
0.0
  0
LINE
  5
8A
  8
STELTXT
 10
777.301415
 20
320.664651
 30
0.0
 11
802.301415
 21
320.664651
 31
0.0
  0
LINE
  5
8B
  8
STELTXT
 10
618.799842
 20
759.958184
 30
0.0
 11
803.579601
 21
661.846574
 31
0.0
  0
LINE
  5
8C
  8
CENTER
 10
586.0
 20
512.405703
 30
0.0
 11
586.0
 21
546.485105
 31
0.0
  0
SOLID
  5
8D
  8
STELTXT
 10
616.845846
 20
756.278101
 30
0.0
 11
620.753838
 21
763.638268
 31
0.0
 12
596.719343
 22
771.682159
 32
0.0
 13
596.719343
 23
771.682159
 33
0.0
  0
LINE
  5
8E
  8
STELTXT
 10
776.019763
 20
1018.497735
 30
0.0
 11
823.949674
 21
1049.494697
 31
0.0
  0
SOLID
  5
8F
  8
STELTXT
 10
778.28246
 20
1014.998976
 30
0.0
 11
773.757065
 21
1021.996494
 31
0.0
 12
755.027211
 22
1004.921551
 32
0.0
 13
755.027211
 23
1004.921551
 33
0.0
  0
LINE
  5
91
  8
DIMENSIONS
 10
501.15
 20
1280.0
 30
0.0
 11
-274.712055
 21
1280.0
 31
0.0
  0
LINE
  5
92
  8
DIMENSIONS
  6
CONTINUOUS
 10
501.15
 20
1488.0
 30
0.0
 11
-332.396889
 21
1488.0
 31
0.0
  0
SOLID
  5
94
  8
DIMENSIONS
 10
-263.878721
 20
1255.0
 30
0.0
 11
-255.545388
 21
1255.0
 31
0.0
 12
-259.712055
 22
1280.0
 32
0.0
 13
-259.712055
 23
1280.0
 33
0.0
  0
SOLID
  5
96
  8
DIMENSIONS
  6
CONTINUOUS
 10
-321.563556
 20
1463.0
 30
0.0
 11
-313.230222
 21
1463.0
 31
0.0
 12
-317.396889
 22
1488.0
 32
0.0
 13
-317.396889
 23
1488.0
 33
0.0
  0
LINE
  5
98
  8
DIMENSIONS
 10
0.0
 20
1577.0
 30
0.0
 11
0.0
 21
2176.902387
 31
0.0
  0
LINE
  5
99
  8
DETAIL
 10
208.0
 20
1610.010152
 30
0.0
 11
242.783293
 21
1581.680453
 31
0.0
  0
LINE
  5
9A
  8
DETAIL
 10
242.783293
 20
1566.0
 30
0.0
 11
242.783293
 21
1760.0
 31
0.0
  0
LINE
  5
9B
  8
DETAIL
 10
242.783293
 20
1566.0
 30
0.0
 11
242.783293
 21
1533.524249
 31
0.0
  0
LINE
  5
9C
  8
DETAIL
 10
208.0
 20
1610.010152
 30
0.0
 11
208.0
 21
1760.0
 31
0.0
  0
LINE
  5
9D
  8
DETAIL
 10
208.0
 20
1623.089504
 30
0.0
 11
242.783293
 21
1623.089504
 31
0.0
  0
LINE
  5
9E
  8
DETAIL
  6
DASHED
 10
516.15
 20
1488.0
 30
0.0
 11
516.15
 21
1280.0
 31
0.0
  0
LINE
  5
9F
  8
DETAIL
  6
DASHED
 10
655.85
 20
1488.0
 30
0.0
 11
655.85
 21
1280.0
 31
0.0
  0
LINE
  5
A0
  8
CENTER
 10
655.85
 20
1280.0
 30
0.0
 11
516.15
 21
1280.0
 31
0.0
  0
CIRCLE
  5
A1
  8
DETAIL
  6
DASHED
 10
586.0
 20
1280.0
 30
0.0
 40
69.85
  0
LINE
  5
A3
  8
CENTER
 10
586.0
 20
1210.15
 30
0.0
 11
586.0
 21
1526.400418
 31
0.0
  0
LINE
  5
A5
  8
DETAIL
  6
DASHED
 10
516.15
 20
1488.0
 30
0.0
 11
655.85
 21
1488.0
 31
0.0
  0
CIRCLE
  5
A6
  8
DETAIL
 10
592.604499
 20
1645.564615
 30
0.0
 40
20.0
  0
POLYLINE
  5
A7
  8
DETAIL
 66
     1
 10
0.0
 20
0.0
 30
0.0
 70
     1
  0
VERTEX
  5
37C
  8
DETAIL
 10
469.666334
 20
1634.215452
 30
0.0
  0
VERTEX
  5
37D
  8
DETAIL
 10
469.666334
 20
1653.159889
 30
0.0
  0
VERTEX
  5
37E
  8
DETAIL
 10
526.645908
 20
1653.159889
 30
0.0
  0
VERTEX
  5
37F
  8
DETAIL
 10
526.645908
 20
1634.215452
 30
0.0
  0
SEQEND
  5
380
  8
DETAIL
  0
CIRCLE
  5
AD
  8
DETAIL
 10
422.944052
 20
1642.196446
 30
0.0
 40
7.0
  0
CIRCLE
  5
AE
  8
DETAIL
 10
422.944052
 20
1685.982036
 30
0.0
 40
7.0
  0
CIRCLE
  5
AF
  8
DETAIL
 10
592.604499
 20
1685.982036
 30
0.0
 40
7.0
  0
CIRCLE
  5
B0
  8
DETAIL
 10
671.114512
 20
1645.564615
 30
0.0
 40
20.0
  0
CIRCLE
  5
B1
  8
DETAIL
 10
671.114512
 20
1685.982036
 30
0.0
 40
7.0
  0
LINE
  5
B2
  8
DIMENSIONS
 10
25.0
 20
1954.95197
 30
0.0
 11
561.0
 21
1954.95197
 31
0.0
  0
SOLID
  5
B3
  8
DIMENSIONS
 10
25.0
 20
1959.118636
 30
0.0
 11
25.0
 21
1950.785303
 31
0.0
 12
0.0
 22
1954.95197
 32
0.0
 13
0.0
 23
1954.95197
 33
0.0
  0
TEXT
  5
B4
  8
DIMENSIONS
 10
282.285714
 20
1979.95197
 30
0.0
 40
25.0
  1
=
 72
     1
 11
293.0
 21
1992.45197
 31
0.0
 73
     2
  0
SOLID
  5
B5
  8
DIMENSIONS
 10
25.0
 20
2166.069054
 30
0.0
 11
25.0
 21
2157.735721
 31
0.0
 12
0.0
 22
2161.902387
 32
0.0
 13
0.0
 23
2161.902387
 33
0.0
  0
SOLID
  5
B6
  8
DIMENSIONS
 10
611.0
 20
1959.118636
 30
0.0
 11
611.0
 21
1950.785303
 31
0.0
 12
586.0
 22
1954.95197
 32
0.0
 13
586.0
 23
1954.95197
 33
0.0
  0
LINE
  5
B7
  8
DIMENSIONS
 10
586.0
 20
1772.94461
 30
0.0
 11
586.0
 21
1969.95197
 31
0.0
  0
SOLID
  5
B8
  8
DIMENSIONS
 10
561.0
 20
1959.118636
 30
0.0
 11
561.0
 21
1950.785303
 31
0.0
 12
586.0
 22
1954.95197
 32
0.0
 13
586.0
 23
1954.95197
 33
0.0
  0
TEXT
  5
B9
  8
DIMENSIONS
 10
546.714286
 20
2186.902387
 30
0.0
 40
25.0
  1
1172
 72
     1
 11
586.0
 21
2199.402387
 31
0.0
 73
     2
  0
TEXT
  5
BB
  8
STELTXT
 10
1492.811866
 20
1061.529455
 30
0.0
 40
25.0
  1
%%C500mm FLUE NOZZLE (LENGTH
  0
LINE
  5
BC
  8
PLANNING
 10
1672.0
 20
2060.0
 30
0.0
 11
1672.0
 21
0.0
 31
0.0
  0
LINE
  5
BD
  8
DETAIL
 10
1172.0
 20
1566.0
 30
0.0
 11
1172.0
 21
35.0
 31
0.0
  0
TEXT
  5
BE
  8
STELTXT
 10
1488.827186
 20
289.894409
 30
0.0
 40
25.0
  1
OPENING VALVE %%C2" PLUG
  0
TEXT
  5
BF
  8
STELTXT
 10
1492.811866
 20
1020.634162
 30
0.0
 40
25.0
  1
OF THE  SPIGOT:100mm)
  0
TEXT
  5
C0
  8
STELTXT
 10
1489.556891
 20
459.029636
 30
0.0
 40
25.0
  1
%%C139.7mm WATER RETURN 
  0
TEXT
  5
C1
  8
STELTXT
 10
1489.556891
 20
419.029636
 30
0.0
 40
25.0
  1
FLANGE (TO BE WELDED)
  0
TEXT
  5
C2
  8
STELTXT
 10
1489.764552
 20
665.357415
 30
0.0
 40
25.0
  1
BURNER PLATE
  0
TEXT
  5
C4
  8
STELTXT
 10
1488.827186
 20
329.894409
 30
0.0
 40
25.0
  1
POSSIBILITY OF QUICK (FRONT)
  0
TEXT
  5
C5
  8
STELTXT
 10
1489.764552
 20
626.571742
 30
0.0
 40
25.0
  1
CENTRE LINE
  0
LINE
  5
C6
  8
DIMENSIONS
 10
1061.09482
 20
-0.288448
 30
0.0
 11
1374.912386
 21
-0.288448
 31
0.0
  0
SOLID
  5
CD
  8
DIMENSIONS
 10
1309.075102
 20
25.0
 30
0.0
 11
1317.408436
 21
25.0
 31
0.0
 12
1313.241769
 22
0.0
 32
0.0
 13
1313.241769
 23
0.0
 33
0.0
  0
SOLID
  5
CE
  8
DIMENSIONS
 10
1309.075102
 20
120.0
 30
0.0
 11
1317.408436
 21
120.0
 31
0.0
 12
1313.241769
 22
145.0
 32
0.0
 13
1313.241769
 23
145.0
 33
0.0
  0
TEXT
  5
CF
  8
DIMENSIONS
 10
1288.241769
 20
42.738095
 30
0.0
 40
25.0
  1
145
 50
90.0
 72
     1
 11
1275.741769
 21
72.5
 31
0.0
 73
     2
  0
LINE
  5
D0
  8
DIMENSIONS
 10
1313.241769
 20
120.0
 30
0.0
 11
1313.241769
 21
25.0
 31
0.0
  0
TEXT
  5
D4
  8
STELTXT
 10
1467.272077
 20
1700.775239
 30
0.0
 40
25.0
  1
 DELUXE CONTROL
  0
TEXT
  5
D5
  8
STELTXT
 10
1488.906956
 20
1658.613123
 30
0.0
 40
25.0
  1
PANEL(Optional)
  0
TEXT
  5
D6
  8
STELTXT
 10
1488.906956
 20
1310.267525
 30
0.0
 40
25.0
  1
FLANGE (TO BE WELDED)
  0
TEXT
  5
D7
  8
STELTXT
 10
1488.906956
 20
1350.267525
 30
0.0
 40
25.0
  1
%%C139.7mm WATER FLOW 
  0
LINE
  5
D8
  8
DIMENSIONS
 10
1172.0
 20
1577.0
 30
0.0
 11
1172.0
 21
2176.902387
 31
0.0
  0
LINE
  5
D9
  8
STELTXT
 10
1005.753258
 20
1686.991165
 30
0.0
 11
1473.583489
 21
1686.990883
 31
0.0
  0
LINE
  5
DA
  8
DETAIL
 10
964.0
 20
1610.010152
 30
0.0
 11
929.216707
 21
1581.680453
 31
0.0
  0
LINE
  5
DB
  8
DETAIL
 10
929.216707
 20
1533.524249
 30
0.0
 11
929.216707
 21
1760.0
 31
0.0
  0
POLYLINE
  5
DC
  8
DETAIL
 66
     1
 10
0.0
 20
0.0
 30
0.0
 70
     1
  0
VERTEX
  5
381
  8
DETAIL
 10
881.738277
 20
1627.365956
 30
0.0
  0
VERTEX
  5
382
  8
DETAIL
 10
881.738277
 20
1645.746573
 30
0.0
  0
VERTEX
  5
383
  8
DETAIL
 10
903.196799
 20
1645.746573
 30
0.0
  0
VERTEX
  5
384
  8
DETAIL
 10
903.196799
 20
1627.365956
 30
0.0
  0
SEQEND
  5
385
  8
DETAIL
  0
POLYLINE
  5
E2
  8
DETAIL
 66
     1
 10
0.0
 20
0.0
 30
0.0
 70
     1
  0
VERTEX
  5
386
  8
DETAIL
 10
881.738277
 20
1653.188211
 30
0.0
  0
VERTEX
  5
387
  8
DETAIL
 10
881.738277
 20
1671.568828
 30
0.0
  0
VERTEX
  5
388
  8
DETAIL
 10
903.196799
 20
1671.568828
 30
0.0
  0
VERTEX
  5
389
  8
DETAIL
 10
903.196799
 20
1653.188211
 30
0.0
  0
SEQEND
  5
38A
  8
DETAIL
  0
POLYLINE
  5
E8
  8
DETAIL
 66
     1
 10
0.0
 20
0.0
 30
0.0
 70
     1
  0
VERTEX
  5
38B
  8
DETAIL
 10
881.738277
 20
1679.010466
 30
0.0
  0
VERTEX
  5
38C
  8
DETAIL
 10
881.738277
 20
1697.391083
 30
0.0
  0
VERTEX
  5
38D
  8
DETAIL
 10
903.196799
 20
1697.391083
 30
0.0
  0
VERTEX
  5
38E
  8
DETAIL
 10
903.196799
 20
1679.010466
 30
0.0
  0
SEQEND
  5
38F
  8
DETAIL
  0
LINE
  5
EE
  8
DETAIL
 10
964.0
 20
1610.010152
 30
0.0
 11
964.0
 21
1760.0
 31
0.0
  0
LINE
  5
EF
  8
DETAIL
 10
964.0
 20
1623.089504
 30
0.0
 11
929.216707
 21
1623.089504
 31
0.0
  0
SOLID
  5
F0
  8
STELTXT
 10
1005.753256
 20
1682.824499
 30
0.0
 11
1005.753261
 21
1691.157832
 31
0.0
 12
980.753258
 22
1686.991181
 32
0.0
 13
980.753258
 23
1686.991181
 33
0.0
  0
TEXT
  5
F1
  8
DIMENSIONS
 10
868.285714
 20
1979.95197
 30
0.0
 40
25.0
  1
=
 72
     1
 11
879.0
 21
1992.45197
 31
0.0
 73
     2
  0
SOLID
  5
F2
  8
DIMENSIONS
 10
1147.0
 20
1959.118636
 30
0.0
 11
1147.0
 21
1950.785303
 31
0.0
 12
1172.0
 22
1954.95197
 32
0.0
 13
1172.0
 23
1954.95197
 33
0.0
  0
SOLID
  5
F3
  8
DIMENSIONS
 10
1147.0
 20
2166.069054
 30
0.0
 11
1147.0
 21
2157.735721
 31
0.0
 12
1172.0
 22
2161.902387
 32
0.0
 13
1172.0
 23
2161.902387
 33
0.0
  0
LINE
  5
120
  8
STELTXT
 10
608.399351
 20
1471.941683
 30
0.0
 11
871.162636
 21
1345.277136
 31
0.0
  0
SOLID
  5
121
  8
STELTXT
 10
613.758468
 20
1464.732564
 30
0.0
 11
617.377051
 21
1472.239248
 31
0.0
 12
593.047708
 22
1479.341655
 32
0.0
 13
593.047708
 23
1479.341655
 33
0.0
  0
LINE
  5
122
  8
STELTXT
 10
871.162636
 20
1345.277136
 30
0.0
 11
1473.583489
 21
1345.276772
 31
0.0
  0
TEXT
  5
1E2
  8
STELTXT
 10
1488.827186
 20
219.829742
 30
0.0
 40
25.0
  1
PLUGGED DRAIN COCK POS'N.
  0
LINE
  5
22C
  8
DETAIL
 10
171.844323
 20
0.0
 30
0.0
 11
171.844323
 21
35.0
 31
0.0
  0
LINE
  5
22D
  8
DETAIL
 10
171.844323
 20
0.0
 30
0.0
 11
1000.155677
 21
0.0
 31
0.0
  0
LINE
  5
22E
  8
DETAIL
 10
1000.155677
 20
0.0
 30
0.0
 11
1000.155677
 21
35.0
 31
0.0
  0
LINE
  5
230
  8
DETAIL
 10
894.0
 20
543.0
 30
0.0
 11
278.0
 21
543.0
 31
0.0
  0
LINE
  5
231
  8
DETAIL
 10
1172.0
 20
1039.0
 30
0.0
 11
0.0
 21
1039.0
 31
0.0
  0
LINE
  5
234
  8
DETAIL
 10
278.0
 20
1039.0
 30
0.0
 11
278.0
 21
35.0
 31
0.0
  0
LINE
  5
235
  8
DETAIL
 10
894.0
 20
1039.0
 30
0.0
 11
894.0
 21
35.0
 31
0.0
  0
POLYLINE
  5
23E
  8
DETAIL
  6
DASHED
 10
376.0
 20
791.0
 30
0.0
 66
     1
 70
     8
  0
VERTEX
  8
DETAIL
  5
392
 10
376.000
 20
791.000
 30
0.000000
  70
    32
  0
VERTEX
  8
DETAIL
  5
393
 10
376.253
 20
781.922
 30
0.000000
  70
    32
  0
VERTEX
  8
DETAIL
  5
394
 10
377.011
 20
772.867
 30
0.000000
  70
    32
  0
VERTEX
  8
DETAIL
  5
395
 10
378.273
 20
763.855
 30
0.000000
  70
    32
  0
VERTEX
  8
DETAIL
  5
396
 10
380.035
 20
754.908
 30
0.000000
  70
    32
  0
VERTEX
  8
DETAIL
  5
397
 10
382.293
 20
746.049
 30
0.000000
  70
    32
  0
VERTEX
  8
DETAIL
  5
398
 10
385.043
 20
737.297
 30
0.000000
  70
    32
  0
VERTEX
  8
DETAIL
  5
399
 10
388.276
 20
728.675
 30
0.000000
  70
    32
  0
VERTEX
  8
DETAIL
  5
39A
 10
391.985
 20
720.204
 30
0.000000
  70
    32
  0
VERTEX
  8
DETAIL
  5
39B
 10
396.162
 20
711.902
 30
0.000000
  70
    32
  0
VERTEX
  8
DETAIL
  5
39C
 10
400.797
 20
703.792
 30
0.000000
  70
    32
  0
VERTEX
  8
DETAIL
  5
39D
 10
405.877
 20
695.891
 30
0.000000
  70
    32
  0
VERTEX
  8
DETAIL
  5
39E
 10
411.391
 20
688.220
 30
0.000000
  70
    32
  0
VERTEX
  8
DETAIL
  5
39F
 10
417.326
 20
680.796
 30
0.000000
  70
    32
  0
VERTEX
  8
DETAIL
  5
3A0
 10
423.668
 20
673.637
 30
0.000000
  70
    32
  0
VERTEX
  8
DETAIL
  5
3A1
 10
430.400
 20
666.762
 30
0.000000
  70
    32
  0
VERTEX
  8
DETAIL
  5
3A2
 10
437.508
 20
660.185
 30
0.000000
  70
    32
  0
VERTEX
  8
DETAIL
  5
3A3
 10
444.973
 20
653.924
 30
0.000000
  70
    32
  0
VERTEX
  8
DETAIL
  5
3A4
 10
452.777
 20
647.993
 30
0.000000
  70
    32
  0
VERTEX
  8
DETAIL
  5
3A5
 10
460.903
 20
642.407
 30
0.000000
  70
    32
  0
VERTEX
  8
DETAIL
  5
3A6
 10
469.330
 20
637.178
 30
0.000000
  70
    32
  0
VERTEX
  8
DETAIL
  5
3A7
 10
478.038
 20
632.320
 30
0.000000
  70
    32
  0
VERTEX
  8
DETAIL
  5
3A8
 10
487.007
 20
627.845
 30
0.000000
  70
    32
  0
VERTEX
  8
DETAIL
  5
3A9
 10
496.213
 20
623.762
 30
0.000000
  70
    32
  0
VERTEX
  8
DETAIL
  5
3AA
 10
505.636
 20
620.082
 30
0.000000
  70
    32
  0
VERTEX
  8
DETAIL
  5
3AB
 10
515.253
 20
616.814
 30
0.000000
  70
    32
  0
VERTEX
  8
DETAIL
  5
3AC
 10
525.040
 20
613.966
 30
0.000000
  70
    32
  0
VERTEX
  8
DETAIL
  5
3AD
 10
534.974
 20
611.544
 30
0.000000
  70
    32
  0
VERTEX
  8
DETAIL
  5
3AE
 10
545.031
 20
609.555
 30
0.000000
  70
    32
  0
VERTEX
  8
DETAIL
  5
3AF
 10
555.187
 20
608.002
 30
0.000000
  70
    32
  0
VERTEX
  8
DETAIL
  5
3B0
 10
565.416
 20
606.891
 30
0.000000
  70
    32
  0
VERTEX
  8
DETAIL
  5
3B1
 10
575.696
 20
606.223
 30
0.000000
  70
    32
  0
VERTEX
  8
DETAIL
  5
3B2
 10
586.000
 20
606.000
 30
0.000000
  70
    32
  0
VERTEX
  8
DETAIL
  5
3B3
 10
596.304
 20
606.223
 30
0.000000
  70
    32
  0
VERTEX
  8
DETAIL
  5
3B4
 10
606.584
 20
606.891
 30
0.000000
  70
    32
  0
VERTEX
  8
DETAIL
  5
3B5
 10
616.813
 20
608.002
 30
0.000000
  70
    32
  0
VERTEX
  8
DETAIL
  5
3B6
 10
626.969
 20
609.555
 30
0.000000
  70
    32
  0
VERTEX
  8
DETAIL
  5
3B7
 10
637.026
 20
611.544
 30
0.000000
  70
    32
  0
VERTEX
  8
DETAIL
  5
3B8
 10
646.960
 20
613.966
 30
0.000000
  70
    32
  0
VERTEX
  8
DETAIL
  5
3B9
 10
656.747
 20
616.814
 30
0.000000
  70
    32
  0
VERTEX
  8
DETAIL
  5
3BA
 10
666.364
 20
620.082
 30
0.000000
  70
    32
  0
VERTEX
  8
DETAIL
  5
3BB
 10
675.787
 20
623.762
 30
0.000000
  70
    32
  0
VERTEX
  8
DETAIL
  5
3BC
 10
684.993
 20
627.845
 30
0.000000
  70
    32
  0
VERTEX
  8
DETAIL
  5
3BD
 10
693.962
 20
632.320
 30
0.000000
  70
    32
  0
VERTEX
  8
DETAIL
  5
3BE
 10
702.670
 20
637.178
 30
0.000000
  70
    32
  0
VERTEX
  8
DETAIL
  5
3BF
 10
711.097
 20
642.407
 30
0.000000
  70
    32
  0
VERTEX
  8
DETAIL
  5
3C0
 10
719.223
 20
647.993
 30
0.000000
  70
    32
  0
VERTEX
  8
DETAIL
  5
3C1
 10
727.027
 20
653.924
 30
0.000000
  70
    32
  0
VERTEX
  8
DETAIL
  5
3C2
 10
734.492
 20
660.185
 30
0.000000
  70
    32
  0
VERTEX
  8
DETAIL
  5
3C3
 10
741.600
 20
666.762
 30
0.000000
  70
    32
  0
VERTEX
  8
DETAIL
  5
3C4
 10
748.332
 20
673.637
 30
0.000000
  70
    32
  0
VERTEX
  8
DETAIL
  5
3C5
 10
754.674
 20
680.796
 30
0.000000
  70
    32
  0
VERTEX
  8
DETAIL
  5
3C6
 10
760.609
 20
688.220
 30
0.000000
  70
    32
  0
VERTEX
  8
DETAIL
  5
3C7
 10
766.123
 20
695.891
 30
0.000000
  70
    32
  0
VERTEX
  8
DETAIL
  5
3C8
 10
771.203
 20
703.792
 30
0.000000
  70
    32
  0
VERTEX
  8
DETAIL
  5
3C9
 10
775.838
 20
711.902
 30
0.000000
  70
    32
  0
VERTEX
  8
DETAIL
  5
3CA
 10
780.015
 20
720.204
 30
0.000000
  70
    32
  0
VERTEX
  8
DETAIL
  5
3CB
 10
783.724
 20
728.675
 30
0.000000
  70
    32
  0
VERTEX
  8
DETAIL
  5
3CC
 10
786.957
 20
737.297
 30
0.000000
  70
    32
  0
VERTEX
  8
DETAIL
  5
3CD
 10
789.707
 20
746.049
 30
0.000000
  70
    32
  0
VERTEX
  8
DETAIL
  5
3CE
 10
791.965
 20
754.908
 30
0.000000
  70
    32
  0
VERTEX
  8
DETAIL
  5
3CF
 10
793.727
 20
763.855
 30
0.000000
  70
    32
  0
VERTEX
  8
DETAIL
  5
3D0
 10
794.989
 20
772.867
 30
0.000000
  70
    32
  0
VERTEX
  8
DETAIL
  5
3D1
 10
795.747
 20
781.922
 30
0.000000
  70
    32
  0
VERTEX
  8
DETAIL
  5
3D2
 10
796.000
 20
791.000
 30
0.000000
  70
    32
  0
VERTEX
  8
DETAIL
  5
3D3
 10
795.747
 20
800.078
 30
0.000000
  70
    32
  0
VERTEX
  8
DETAIL
  5
3D4
 10
794.989
 20
809.133
 30
0.000000
  70
    32
  0
VERTEX
  8
DETAIL
  5
3D5
 10
793.727
 20
818.145
 30
0.000000
  70
    32
  0
VERTEX
  8
DETAIL
  5
3D6
 10
791.965
 20
827.092
 30
0.000000
  70
    32
  0
VERTEX
  8
DETAIL
  5
3D7
 10
789.707
 20
835.951
 30
0.000000
  70
    32
  0
VERTEX
  8
DETAIL
  5
3D8
 10
786.957
 20
844.703
 30
0.000000
  70
    32
  0
VERTEX
  8
DETAIL
  5
3D9
 10
783.724
 20
853.325
 30
0.000000
  70
    32
  0
VERTEX
  8
DETAIL
  5
3DA
 10
780.015
 20
861.796
 30
0.000000
  70
    32
  0
VERTEX
  8
DETAIL
  5
3DB
 10
775.838
 20
870.098
 30
0.000000
  70
    32
  0
VERTEX
  8
DETAIL
  5
3DC
 10
771.203
 20
878.208
 30
0.000000
  70
    32
  0
VERTEX
  8
DETAIL
  5
3DD
 10
766.123
 20
886.109
 30
0.000000
  70
    32
  0
VERTEX
  8
DETAIL
  5
3DE
 10
760.609
 20
893.780
 30
0.000000
  70
    32
  0
VERTEX
  8
DETAIL
  5
3DF
 10
754.674
 20
901.204
 30
0.000000
  70
    32
  0
VERTEX
  8
DETAIL
  5
3E0
 10
748.332
 20
908.363
 30
0.000000
  70
    32
  0
VERTEX
  8
DETAIL
  5
3E1
 10
741.600
 20
915.238
 30
0.000000
  70
    32
  0
VERTEX
  8
DETAIL
  5
3E2
 10
734.492
 20
921.815
 30
0.000000
  70
    32
  0
VERTEX
  8
DETAIL
  5
3E3
 10
727.027
 20
928.076
 30
0.000000
  70
    32
  0
VERTEX
  8
DETAIL
  5
3E4
 10
719.223
 20
934.007
 30
0.000000
  70
    32
  0
VERTEX
  8
DETAIL
  5
3E5
 10
711.097
 20
939.593
 30
0.000000
  70
    32
  0
VERTEX
  8
DETAIL
  5
3E6
 10
702.670
 20
944.822
 30
0.000000
  70
    32
  0
VERTEX
  8
DETAIL
  5
3E7
 10
693.962
 20
949.680
 30
0.000000
  70
    32
  0
VERTEX
  8
DETAIL
  5
3E8
 10
684.993
 20
954.155
 30
0.000000
  70
    32
  0
VERTEX
  8
DETAIL
  5
3E9
 10
675.787
 20
958.238
 30
0.000000
  70
    32
  0
VERTEX
  8
DETAIL
  5
3EA
 10
666.364
 20
961.918
 30
0.000000
  70
    32
  0
VERTEX
  8
DETAIL
  5
3EB
 10
656.747
 20
965.186
 30
0.000000
  70
    32
  0
VERTEX
  8
DETAIL
  5
3EC
 10
646.960
 20
968.034
 30
0.000000
  70
    32
  0
VERTEX
  8
DETAIL
  5
3ED
 10
637.026
 20
970.456
 30
0.000000
  70
    32
  0
VERTEX
  8
DETAIL
  5
3EE
 10
626.969
 20
972.445
 30
0.000000
  70
    32
  0
VERTEX
  8
DETAIL
  5
3EF
 10
616.813
 20
973.998
 30
0.000000
  70
    32
  0
VERTEX
  8
DETAIL
  5
3F0
 10
606.584
 20
975.109
 30
0.000000
  70
    32
  0
VERTEX
  8
DETAIL
  5
3F1
 10
596.304
 20
975.777
 30
0.000000
  70
    32
  0
VERTEX
  8
DETAIL
  5
3F2
 10
586.000
 20
976.000
 30
0.000000
  70
    32
  0
VERTEX
  8
DETAIL
  5
3F3
 10
575.696
 20
975.777
 30
0.000000
  70
    32
  0
VERTEX
  8
DETAIL
  5
3F4
 10
565.416
 20
975.109
 30
0.000000
  70
    32
  0
VERTEX
  8
DETAIL
  5
3F5
 10
555.187
 20
973.998
 30
0.000000
  70
    32
  0
VERTEX
  8
DETAIL
  5
3F6
 10
545.031
 20
972.445
 30
0.000000
  70
    32
  0
VERTEX
  8
DETAIL
  5
3F7
 10
534.974
 20
970.456
 30
0.000000
  70
    32
  0
VERTEX
  8
DETAIL
  5
3F8
 10
525.040
 20
968.034
 30
0.000000
  70
    32
  0
VERTEX
  8
DETAIL
  5
3F9
 10
515.253
 20
965.186
 30
0.000000
  70
    32
  0
VERTEX
  8
DETAIL
  5
3FA
 10
505.636
 20
961.918
 30
0.000000
  70
    32
  0
VERTEX
  8
DETAIL
  5
3FB
 10
496.213
 20
958.238
 30
0.000000
  70
    32
  0
VERTEX
  8
DETAIL
  5
3FC
 10
487.007
 20
954.155
 30
0.000000
  70
    32
  0
VERTEX
  8
DETAIL
  5
3FD
 10
478.038
 20
949.680
 30
0.000000
  70
    32
  0
VERTEX
  8
DETAIL
  5
3FE
 10
469.330
 20
944.822
 30
0.000000
  70
    32
  0
VERTEX
  8
DETAIL
  5
3FF
 10
460.903
 20
939.593
 30
0.000000
  70
    32
  0
VERTEX
  8
DETAIL
  5
400
 10
452.777
 20
934.007
 30
0.000000
  70
    32
  0
VERTEX
  8
DETAIL
  5
401
 10
444.973
 20
928.076
 30
0.000000
  70
    32
  0
VERTEX
  8
DETAIL
  5
402
 10
437.508
 20
921.815
 30
0.000000
  70
    32
  0
VERTEX
  8
DETAIL
  5
403
 10
430.400
 20
915.238
 30
0.000000
  70
    32
  0
VERTEX
  8
DETAIL
  5
404
 10
423.668
 20
908.363
 30
0.000000
  70
    32
  0
VERTEX
  8
DETAIL
  5
405
 10
417.326
 20
901.204
 30
0.000000
  70
    32
  0
VERTEX
  8
DETAIL
  5
406
 10
411.391
 20
893.780
 30
0.000000
  70
    32
  0
VERTEX
  8
DETAIL
  5
407
 10
405.877
 20
886.109
 30
0.000000
  70
    32
  0
VERTEX
  8
DETAIL
  5
408
 10
400.797
 20
878.208
 30
0.000000
  70
    32
  0
VERTEX
  8
DETAIL
  5
409
 10
396.162
 20
870.098
 30
0.000000
  70
    32
  0
VERTEX
  8
DETAIL
  5
40A
 10
391.985
 20
861.796
 30
0.000000
  70
    32
  0
VERTEX
  8
DETAIL
  5
40B
 10
388.276
 20
853.325
 30
0.000000
  70
    32
  0
VERTEX
  8
DETAIL
  5
40C
 10
385.043
 20
844.703
 30
0.000000
  70
    32
  0
VERTEX
  8
DETAIL
  5
40D
 10
382.293
 20
835.951
 30
0.000000
  70
    32
  0
VERTEX
  8
DETAIL
  5
40E
 10
380.035
 20
827.092
 30
0.000000
  70
    32
  0
VERTEX
  8
DETAIL
  5
40F
 10
378.273
 20
818.145
 30
0.000000
  70
    32
  0
VERTEX
  8
DETAIL
  5
410
 10
377.011
 20
809.133
 30
0.000000
  70
    32
  0
VERTEX
  8
DETAIL
  5
411
 10
376.253
 20
800.078
 30
0.000000
  70
    32
  0
VERTEX
  8
DETAIL
  5
412
 10
376.000
 20
791.000
 30
0.000000
  70
    32
  0
SEQEND
  8
DETAIL
  5
413
  0
LINE
  5
243
  8
PLANNING
 10
-1200.0
 20
0.0
 30
0.0
 11
-1200.0
 21
2060.0
 31
0.0
  0
LINE
  5
244
  8
PLANNING
 10
-1200.0
 20
2060.0
 30
0.0
 11
1672.0
 21
2060.0
 31
0.0
  0
LINE
  5
245
  8
0
 10
-15.0
 20
1566.0
 30
0.0
 11
-444.496739
 21
1566.0
 31
0.0
  0
LINE
  5
246
  8
0
 10
102.272025
 20
0.0
 30
0.0
 11
-444.496739
 21
0.0
 31
0.0
  0
LINE
  5
247
  8
0
 10
-377.727699
 20
1541.0
 30
0.0
 11
-377.727699
 21
25.0
 31
0.0
  0
SOLID
  5
248
  8
0
 10
-381.894365
 20
1541.0
 30
0.0
 11
-373.561032
 21
1541.0
 31
0.0
 12
-377.727699
 22
1566.0
 32
0.0
 13
-377.727699
 23
1566.0
 33
0.0
  0
SOLID
  5
249
  8
0
 10
-381.894365
 20
25.0
 30
0.0
 11
-373.561032
 21
25.0
 31
0.0
 12
-377.727699
 22
0.0
 32
0.0
 13
-377.727699
 23
0.0
 33
0.0
  0
TEXT
  5
24B
  8
0
 10
-392.57882
 20
711.571429
 30
0.0
 40
25.0
  1
1566
 50
90.0
  0
LINE
  5
24C
  8
0
 10
202.5
 20
1760.0
 30
0.0
 11
-459.496739
 21
1760.0
 31
0.0
  0
LINE
  5
24D
  8
0
 10
102.272025
 20
0.0
 30
0.0
 11
-459.496739
 21
0.0
 31
0.0
  0
LINE
  5
24E
  8
0
 10
-444.496739
 20
1735.0
 30
0.0
 11
-444.496739
 21
25.0
 31
0.0
  0
SOLID
  5
24F
  8
0
 10
-448.663405
 20
1735.0
 30
0.0
 11
-440.330072
 21
1735.0
 31
0.0
 12
-444.496739
 22
1760.0
 32
0.0
 13
-444.496739
 23
1760.0
 33
0.0
  0
SOLID
  5
250
  8
0
 10
-448.663405
 20
25.0
 30
0.0
 11
-440.330072
 21
25.0
 31
0.0
 12
-444.496739
 22
0.0
 32
0.0
 13
-444.496739
 23
0.0
 33
0.0
  0
TEXT
  5
253
  8
0
 10
-452.815184
 20
808.571429
 30
0.0
 40
25.0
  1
1760
 50
90.0
  0
CIRCLE
  5
2B0
  8
DETAIL
 10
586.0
 20
815.0
 30
0.0
 40
250.0
  0
ATTDEF
  5
311
  8
STELATT
 10
365.735993
 20
-254.324227
 30
0.0
 40
40.0
  1
IDEAL
 72
     4
 11
599.069327
 21
-234.324227
 31
0.0
  3

  2
MANUFACTURER
 70
     2
  0
ATTDEF
  5
312
  8
STELATT
 10
530.497898
 20
-324.324227
 30
0.0
 40
40.0
  1
VISCOUNT GTE
 72
     4
 11
599.069327
 21
-304.324227
 31
0.0
  3

  2
TYPE
 70
     2
  0
ATTDEF
  5
313
  8
STELATT
 10
505.735993
 20
-394.324227
 30
0.0
 40
40.0
  1
17
 72
     4
 11
599.069327
 21
-374.324227
 31
0.0
  3

  2
MODEL
 70
     2
  0
ENDSEC
  0
EOF
