  0
SECTION
  2
HEADER
  9
$ACADVER
  1
AC1009
  9
$INSBASE
 10
0.0
 20
0.0
 30
0.0
  9
$EXTMIN
 10
-1200.197263
 20
-1675.359702
 30
0.0
  9
$EXTMAX
 10
2032.294873
 20
4218.990694
 30
0.0
  9
$LIMMIN
 10
0.0
 20
0.0
  9
$LIMMAX
 10
420.0
 20
297.0
  9
$ORTHOMODE
 70
     1
  9
$REGENMODE
 70
     1
  9
$FILLMODE
 70
     1
  9
$QTEXTMODE
 70
     0
  9
$MIRRTEXT
 70
     0
  9
$DRAGMODE
 70
     2
  9
$LTSCALE
 40
25.0
  9
$OSMODE
 70
     0
  9
$ATTMODE
 70
     1
  9
$TEXTSIZE
 40
3.0
  9
$TRACEWID
 40
10.0
  9
$TEXTSTYLE
  7
STANDARD
  9
$CLAYER
  8
0
  9
$CELTYPE
  6
BYLAYER
  9
$CECOLOR
 62
   256
  9
$DIMSCALE
 40
1.0
  9
$DIMASZ
 40
25.0
  9
$DIMEXO
 40
15.0
  9
$DIMDLI
 40
10.0
  9
$DIMRND
 40
0.0
  9
$DIMDLE
 40
1.25
  9
$DIMEXE
 40
15.0
  9
$DIMTP
 40
0.0
  9
$DIMTM
 40
0.0
  9
$DIMTXT
 40
25.0
  9
$DIMCEN
 40
-3.0
  9
$DIMTSZ
 40
0.0
  9
$DIMTOL
 70
     0
  9
$DIMLIM
 70
     0
  9
$DIMTIH
 70
     0
  9
$DIMTOH
 70
     0
  9
$DIMSE1
 70
     0
  9
$DIMSE2
 70
     0
  9
$DIMTAD
 70
     0
  9
$DIMZIN
 70
     1
  9
$DIMBLK
  1

  9
$DIMASO
 70
     0
  9
$DIMSHO
 70
     0
  9
$DIMPOST
  1

  9
$DIMAPOST
  1

  9
$DIMALT
 70
     0
  9
$DIMALTD
 70
     2
  9
$DIMALTF
 40
0.039
  9
$DIMLFAC
 40
1.0
  9
$DIMTOFL
 70
     0
  9
$DIMTVP
 40
1.5
  9
$DIMTIX
 70
     0
  9
$DIMSOXD
 70
     0
  9
$DIMSAH
 70
     0
  9
$DIMBLK1
  1

  9
$DIMBLK2
  1

  9
$DIMSTYLE
  2
STANDARD
  9
$DIMCLRD
 70
     0
  9
$DIMCLRE
 70
     0
  9
$DIMCLRT
 70
     0
  9
$DIMTFAC
 40
1.0
  9
$DIMGAP
 40
0.09
  9
$LUNITS
 70
     2
  9
$LUPREC
 70
     2
  9
$SKETCHINC
 40
1.0
  9
$FILLETRAD
 40
0.0
  9
$AUNITS
 70
     0
  9
$AUPREC
 70
     4
  9
$MENU
  1
acad
  9
$ELEVATION
 40
0.0
  9
$PELEVATION
 40
0.0
  9
$THICKNESS
 40
0.0
  9
$LIMCHECK
 70
     0
  9
$BLIPMODE
 70
     0
  9
$CHAMFERA
 40
66.0
  9
$CHAMFERB
 40
66.0
  9
$SKPOLY
 70
     1
  9
$TDCREATE
 40
2450093.509149
  9
$TDUPDATE
 40
2453073.534993
  9
$TDINDWG
 40
0.085699
  9
$TDUSRTIMER
 40
0.085699
  9
$USRTIMER
 70
     1
  9
$ANGBASE
 50
0.0
  9
$ANGDIR
 70
     0
  9
$PDMODE
 70
     4
  9
$PDSIZE
 40
0.0
  9
$PLINEWID
 40
0.0
  9
$COORDS
 70
     1
  9
$SPLFRAME
 70
     0
  9
$SPLINETYPE
 70
     6
  9
$SPLINESEGS
 70
     6
  9
$ATTDIA
 70
     0
  9
$ATTREQ
 70
     1
  9
$HANDLING
 70
 22529
  9
$HANDSEED
  5
250
  9
$SURFTAB1
 70
    12
  9
$SURFTAB2
 70
    12
  9
$SURFTYPE
 70
     6
  9
$SURFU
 70
    12
  9
$SURFV
 70
    12
  9
$UCSNAME
  2

  9
$UCSORG
 10
0.0
 20
0.0
 30
0.0
  9
$UCSXDIR
 10
1.0
 20
0.0
 30
0.0
  9
$UCSYDIR
 10
0.0
 20
1.0
 30
0.0
  9
$PUCSNAME
  2

  9
$PUCSORG
 10
0.0
 20
0.0
 30
0.0
  9
$PUCSXDIR
 10
1.0
 20
0.0
 30
0.0
  9
$PUCSYDIR
 10
0.0
 20
1.0
 30
0.0
  9
$USERI1
 70
     0
  9
$USERI2
 70
     0
  9
$USERI3
 70
     0
  9
$USERI4
 70
     0
  9
$USERI5
 70
     0
  9
$USERR1
 40
0.0
  9
$USERR2
 40
0.0
  9
$USERR3
 40
0.0
  9
$USERR4
 40
0.0
  9
$USERR5
 40
0.0
  9
$WORLDVIEW
 70
     0
  9
$SHADEDGE
 70
     3
  9
$SHADEDIF
 70
    70
  9
$TILEMODE
 70
     1
  9
$MAXACTVP
 70
    16
  9
$PLIMCHECK
 70
     0
  9
$PEXTMIN
 10
1.000000E+020
 20
1.000000E+020
 30
1.000000E+020
  9
$PEXTMAX
 10
-1.000000E+020
 20
-1.000000E+020
 30
-1.000000E+020
  9
$PLIMMIN
 10
0.0
 20
0.0
  9
$PLIMMAX
 10
12.0
 20
9.0
  9
$UNITMODE
 70
     0
  9
$VISRETAIN
 70
     0
  9
$PLINEGEN
 70
     0
  9
$PSLTSCALE
 70
     0
  0
ENDSEC
  0
SECTION
  2
TABLES
  0
TABLE
  2
VPORT
 70
     2
  0
VPORT
  2
*ACTIVE
 70
     0
 10
0.0
 20
0.0
 11
1.0
 21
1.0
 12
416.048805
 22
1271.815496
 13
0.0
 23
0.0
 14
10.0
 24
10.0
 15
0.0
 25
0.0
 16
0.0
 26
0.0
 36
1.0
 17
0.0
 27
0.0
 37
0.0
 40
5962.231591
 41
1.825
 42
50.0
 43
0.0
 44
0.0
 50
0.0
 51
0.0
 71
     0
 72
 20000
 73
     1
 74
     2
 75
     0
 76
     0
 77
     0
 78
     2
  0
ENDTAB
  0
TABLE
  2
LTYPE
 70
     3
  0
LTYPE
  2
CONTINUOUS
 70
     0
  3
Solid line
 72
    65
 73
     0
 40
0.0
  0
LTYPE
  2
CENTER
 70
     0
  3
____ _ ____ _ ____ _ ____ _ ____ _ ____ _ ____
 72
    65
 73
     4
 40
2.0
 49
1.25
 49
-0.25
 49
0.25
 49
-0.25
  0
LTYPE
  2
DASHED
 70
     0
  3
__ __ __ __ __ __ __ __ __ __ __ __ __ __ __
 72
    65
 73
     2
 40
0.75
 49
0.5
 49
-0.25
  0
ENDTAB
  0
TABLE
  2
LAYER
 70
     8
  0
LAYER
  2
0
 70
     0
 62
     7
  6
CONTINUOUS
  0
LAYER
  2
DETAIL
 70
     0
 62
     2
  6
CONTINUOUS
  0
LAYER
  2
DIMENSIONS
 70
     0
 62
     7
  6
CONTINUOUS
  0
LAYER
  2
CENTER
 70
     0
 62
     4
  6
CENTER
  0
LAYER
  2
ORIGIN
 70
     0
 62
     6
  6
CONTINUOUS
  0
LAYER
  2
PLANNING
 70
     0
 62
     1
  6
DASHED
  0
LAYER
  2
STELTXT
 70
     0
 62
     4
  6
CONTINUOUS
  0
LAYER
  2
STELATT
 70
     0
 62
     7
  6
CONTINUOUS
  0
ENDTAB
  0
TABLE
  2
STYLE
 70
     1
  0
STYLE
  2
STANDARD
 70
     0
 40
0.0
 41
1.0
 50
0.0
 71
     0
 42
3.0
  3
simplex
  4

  0
ENDTAB
  0
TABLE
  2
VIEW
 70
     0
  0
ENDTAB
  0
TABLE
  2
UCS
 70
     0
  0
ENDTAB
  0
TABLE
  2
APPID
 70
     1
  0
APPID
  2
ACAD
 70
     0
  0
ENDTAB
  0
TABLE
  2
DIMSTYLE
 70
     1
  0
DIMSTYLE
  2
STANDARD
 70
     0
  3

  4

  5

  6

  7

 40
1.0
 41
0.18
 42
0.0625
 43
0.38
 44
0.18
 45
0.0
 46
0.0
 47
0.0
 48
0.0
140
0.18
141
0.09
142
0.0
143
25.4
144
1.0
145
0.0
146
1.0
147
0.09
 71
     0
 72
     0
 73
     1
 74
     1
 75
     0
 76
     0
 77
     0
 78
     0
170
     0
171
     2
172
     0
173
     0
174
     0
175
     0
176
     0
177
     0
178
     0
  0
ENDTAB
  0
ENDSEC
  0
SECTION
  2
BLOCKS
  0
BLOCK
  8
0
  2
$MODEL_SPACE
 70
     0
 10
0.0
 20
0.0
 30
0.0
  3
$MODEL_SPACE
  1

  0
ENDBLK
  5
1C6
  8
0
  0
BLOCK
 67
     1
  8
0
  2
$PAPER_SPACE
 70
     0
 10
0.0
 20
0.0
 30
0.0
  3
$PAPER_SPACE
  1

  0
ENDBLK
  5
1C4
 67
     1
  8
0
  0
ENDSEC
  0
SECTION
  2
ENTITIES
  0
LINE
  5
20
  8
STELTXT
 10
597.715963
 20
2893.96245
 30
0.0
 11
776.551981
 21
2405.523558
 31
0.0
  0
LINE
  5
22
  8
DIMENSIONS
 10
1147.0
 20
3995.994123
 30
0.0
 11
611.0
 21
3995.994123
 31
0.0
  0
LINE
  5
24
  8
STELTXT
 10
613.905744
 20
-42.702278
 30
0.0
 11
820.435604
 21
-248.422271
 31
0.0
  0
LINE
  5
25
  8
DIMENSIONS
 10
25.0
 20
4168.630937
 30
0.0
 11
1147.0
 21
4168.630937
 31
0.0
  0
LINE
  5
26
  8
DETAIL
  6
DASHED
 10
284.753983
 20
-17.0
 30
0.0
 11
887.246017
 21
-17.0
 31
0.0
  0
LINE
  5
29
  8
DETAIL
  6
DASHED
 10
208.0
 20
0.0
 30
0.0
 11
964.0
 21
0.0
 31
0.0
  0
LINE
  5
2A
  8
DIMENSIONS
 10
242.5
 20
-348.515078
 30
0.0
 11
929.5
 21
-348.515078
 31
0.0
  0
LINE
  5
2D
  8
DETAIL
 10
964.0
 20
180.0
 30
0.0
 11
208.0
 21
180.0
 31
0.0
  0
LINE
  5
2E
  8
DETAIL
 10
964.0
 20
-175.0
 30
0.0
 11
208.0
 21
-175.0
 31
0.0
  0
LINE
  5
2F
  8
DETAIL
 10
0.0
 20
2955.0
 30
0.0
 11
1172.0
 21
2955.0
 31
0.0
  0
LINE
  5
31
  8
STELTXT
 10
750.05962
 20
3147.580862
 30
0.0
 11
1451.965277
 21
3147.580862
 31
0.0
  0
LINE
  5
32
  8
DETAIL
  6
DASHED
 10
236.0
 20
2932.0
 30
0.0
 11
936.0
 21
2932.0
 31
0.0
  0
LINE
  5
33
  8
DETAIL
  6
DASHED
 10
236.0
 20
2832.0
 30
0.0
 11
936.0
 21
2832.0
 31
0.0
  0
LINE
  5
35
  8
DIMENSIONS
 10
-231.588818
 20
2930.0
 30
0.0
 11
-231.588818
 21
25.0
 31
0.0
  0
LINE
  5
36
  8
DETAIL
 10
366.024411
 20
180.0
 30
0.0
 11
366.024411
 21
2955.0
 31
0.0
  0
LINE
  5
37
  8
DETAIL
 10
0.0
 20
0.0
 30
0.0
 11
0.0
 21
2955.0
 31
0.0
  0
LINE
  5
38
  8
DIMENSIONS
 10
-15.0
 20
0.0
 30
0.0
 11
-246.588818
 21
0.0
 31
0.0
  0
POLYLINE
  5
39
  8
ORIGIN
 66
     1
 10
0.0
 20
0.0
 30
0.0
  0
VERTEX
  5
247
  8
ORIGIN
 10
0.0
 20
0.0
 30
0.0
  0
VERTEX
  5
248
  8
ORIGIN
 10
-100.0
 20
-100.0
 30
0.0
  0
VERTEX
  5
249
  8
ORIGIN
 10
-100.0
 20
100.0
 30
0.0
  0
VERTEX
  5
24A
  8
ORIGIN
 10
100.0
 20
-100.0
 30
0.0
  0
VERTEX
  5
24B
  8
ORIGIN
 10
100.0
 20
100.0
 30
0.0
  0
VERTEX
  5
24C
  8
ORIGIN
 10
0.0
 20
0.0
 30
0.0
  0
SEQEND
  5
24D
  8
ORIGIN
  0
LINE
  5
42
  8
DIMENSIONS
  6
CONTINUOUS
 10
202.5
 20
-175.0
 30
0.0
 11
-247.409198
 21
-175.0
 31
0.0
  0
SOLID
  5
43
  8
DIMENSIONS
 10
-227.422151
 20
25.0
 30
0.0
 11
-235.755485
 21
25.0
 31
0.0
 12
-231.588818
 22
0.0
 32
0.0
 13
-231.588818
 23
0.0
 33
0.0
  0
TEXT
  5
44
  8
DIMENSIONS
  6
CONTINUOUS
 10
-261.422252
 20
-112.431901
 30
0.0
 40
25.0
  1
175
 50
90.0
  0
LINE
  5
45
  8
DIMENSIONS
  6
CONTINUOUS
 10
-231.589198
 20
-150.0
 30
0.0
 11
-231.589198
 21
-25.0
 31
0.0
  0
SOLID
  5
46
  8
DIMENSIONS
  6
CONTINUOUS
 10
-235.755864
 20
-150.0
 30
0.0
 11
-227.422531
 21
-150.0
 31
0.0
 12
-231.589198
 22
-175.0
 32
0.0
 13
-231.589198
 23
-175.0
 33
0.0
  0
SOLID
  5
47
  8
DIMENSIONS
  6
CONTINUOUS
 10
-235.755864
 20
-25.0
 30
0.0
 11
-227.422531
 21
-25.0
 31
0.0
 12
-231.589198
 22
0.0
 32
0.0
 13
-231.589198
 23
0.0
 33
0.0
  0
SOLID
  5
48
  8
DIMENSIONS
  6
CONTINUOUS
 10
168.680402
 20
155.0
 30
0.0
 11
177.013735
 21
155.0
 31
0.0
 12
172.847068
 22
180.0
 32
0.0
 13
172.847068
 23
180.0
 33
0.0
  0
SOLID
  5
49
  8
DIMENSIONS
  6
CONTINUOUS
 10
168.680402
 20
-150.0
 30
0.0
 11
177.013735
 21
-150.0
 31
0.0
 12
172.847068
 22
-175.0
 32
0.0
 13
172.847068
 23
-175.0
 33
0.0
  0
LINE
  5
4A
  8
DETAIL
 10
208.0
 20
0.0
 30
0.0
 11
0.0
 21
0.0
 31
0.0
  0
LINE
  5
4B
  8
DIMENSIONS
  6
CONTINUOUS
 10
202.5
 20
180.0
 30
0.0
 11
157.847068
 21
180.0
 31
0.0
  0
TEXT
  5
4C
  8
DIMENSIONS
  6
CONTINUOUS
 10
147.847068
 20
52.267574
 30
0.0
 40
25.0
  1
355
 50
90.0
  0
LINE
  5
4D
  8
DETAIL
 10
208.0
 20
180.0
 30
0.0
 11
208.0
 21
-175.0
 31
0.0
  0
LINE
  5
4E
  8
DETAIL
 10
242.783293
 20
180.0
 30
0.0
 11
242.783293
 21
-175.0
 31
0.0
  0
LINE
  5
4F
  8
DIMENSIONS
  6
CONTINUOUS
 10
172.847068
 20
155.0
 30
0.0
 11
172.847068
 21
-150.0
 31
0.0
  0
LINE
  5
50
  8
DIMENSIONS
 10
217.5
 20
-190.0
 30
0.0
 11
217.5
 21
-363.515078
 31
0.0
  0
SOLID
  5
51
  8
DIMENSIONS
 10
242.5
 20
-344.348411
 30
0.0
 11
242.5
 21
-352.681745
 31
0.0
 12
217.5
 22
-348.515078
 32
0.0
 13
217.5
 23
-348.515078
 33
0.0
  0
LINE
  5
52
  8
DETAIL
  6
DASHED
 10
284.753983
 20
0.0
 30
0.0
 11
284.753983
 21
-17.0
 31
0.0
  0
CIRCLE
  5
53
  8
ORIGIN
 10
586.0
 20
-17.0
 30
0.0
 40
50.0
  0
LINE
  5
54
  8
CENTER
 10
660.942474
 20
-17.0
 30
0.0
 11
511.057526
 21
-17.0
 31
0.0
  0
TEXT
  5
57
  8
DIMENSIONS
 10
553.857143
 20
-323.515078
 30
0.0
 40
25.0
  1
737
 72
     1
 11
586.0
 21
-311.015078
 31
0.0
 73
     2
  0
LINE
  5
58
  8
CENTER
 10
586.0
 20
-91.942474
 30
0.0
 11
586.0
 21
57.942474
 31
0.0
  0
SOLID
  5
5A
  8
STELTXT
 10
610.965259
 20
-45.654338
 30
0.0
 11
616.846229
 21
-39.750217
 31
0.0
 12
596.193381
 22
-25.05937
 32
0.0
 13
596.193381
 23
-25.05937
 33
0.0
  0
LINE
  5
5B
  8
DIMENSIONS
 10
-15.0
 20
2955.0
 30
0.0
 11
-246.588818
 21
2955.0
 31
0.0
  0
TEXT
  5
5C
  8
DIMENSIONS
 10
-248.408288
 20
1426.94666
 30
0.0
 40
25.0
  1
2955
 50
90.0
 72
     4
 11
-260.908288
 21
1470.994279
 31
0.0
  0
SOLID
  5
5D
  8
DIMENSIONS
 10
-227.422151
 20
2930.0
 30
0.0
 11
-235.755485
 21
2930.0
 31
0.0
 12
-231.588818
 22
2955.0
 32
0.0
 13
-231.588818
 23
2955.0
 33
0.0
  0
LINE
  5
5E
  8
DIMENSIONS
 10
0.0
 20
2970.0
 30
0.0
 11
0.0
 21
4183.630937
 31
0.0
  0
LINE
  5
5F
  8
DIMENSIONS
 10
137.316831
 20
3163.0
 30
0.0
 11
137.316831
 21
2980.0
 31
0.0
  0
SOLID
  5
60
  8
DIMENSIONS
 10
133.150165
 20
3139.0
 30
0.0
 11
141.483498
 21
3139.0
 31
0.0
 12
137.316831
 22
3164.0
 32
0.0
 13
137.316831
 23
3164.0
 33
0.0
  0
CIRCLE
  5
61
  8
DETAIL
 10
586.0
 20
3164.0
 30
0.0
 40
79.5
  0
LINE
  5
62
  8
DETAIL
 10
506.5
 20
3164.0
 30
0.0
 11
506.5
 21
2955.0
 31
0.0
  0
LINE
  5
63
  8
CENTER
 10
586.0
 20
2656.968846
 30
0.0
 11
586.0
 21
3282.516557
 31
0.0
  0
LINE
  5
64
  8
DETAIL
 10
665.5
 20
3164.0
 30
0.0
 11
665.5
 21
2955.0
 31
0.0
  0
LINE
  5
66
  8
DIMENSIONS
 10
95.236294
 20
2955.0
 30
0.0
 11
282.836479
 21
2955.0
 31
0.0
  0
TEXT
  5
67
  8
DIMENSIONS
 10
112.316831
 20
3031.0194
 30
0.0
 40
25.0
  1
209
 50
90.0
 72
     4
 11
99.816831
 21
3062.567019
 31
0.0
  0
LINE
  5
68
  8
DIMENSIONS
 10
95.236294
 20
2955.0
 30
0.0
 11
100.163282
 21
2955.0
 31
0.0
  0
SOLID
  5
69
  8
DIMENSIONS
 10
133.150165
 20
2980.0
 30
0.0
 11
141.483498
 21
2980.0
 31
0.0
 12
137.316831
 22
2955.0
 32
0.0
 13
137.316831
 23
2955.0
 33
0.0
  0
TEXT
  5
6A
  8
DIMENSIONS
  6
CONTINUOUS
 10
214.472263
 20
2852.238095
 30
0.0
 40
25.0
  1
100
 50
90.0
  0
LINE
  5
6B
  8
DETAIL
  6
DASHED
 10
236.0
 20
2832.0
 30
0.0
 11
236.0
 21
2932.0
 31
0.0
  0
LINE
  5
6C
  8
DIMENSIONS
  6
CONTINUOUS
 10
224.986042
 20
2832.0
 30
0.0
 11
184.466451
 21
2832.0
 31
0.0
  0
SOLID
  5
6D
  8
DIMENSIONS
  6
CONTINUOUS
 10
195.299785
 20
2807.0
 30
0.0
 11
203.633118
 21
2807.0
 31
0.0
 12
199.466451
 22
2832.0
 32
0.0
 13
199.466451
 23
2832.0
 33
0.0
  0
LINE
  5
6E
  8
DIMENSIONS
  6
CONTINUOUS
 10
199.466451
 20
2807.0
 30
0.0
 11
199.466451
 21
2782.0
 31
0.0
  0
LINE
  5
6F
  8
DIMENSIONS
  6
CONTINUOUS
 10
224.986042
 20
2932.0
 30
0.0
 11
184.466451
 21
2932.0
 31
0.0
  0
SOLID
  5
70
  8
DIMENSIONS
  6
CONTINUOUS
 10
195.299785
 20
2957.0
 30
0.0
 11
203.633118
 21
2957.0
 31
0.0
 12
199.466451
 22
2932.0
 32
0.0
 13
199.466451
 23
2932.0
 33
0.0
  0
LINE
  5
71
  8
DIMENSIONS
  6
CONTINUOUS
 10
199.466451
 20
2957.0
 30
0.0
 11
199.466451
 21
2982.0
 31
0.0
  0
LINE
  5
72
  8
DETAIL
  6
DASHED
 10
506.5
 20
2920.0
 30
0.0
 11
665.5
 21
2920.0
 31
0.0
  0
SOLID
  5
73
  8
DIMENSIONS
  6
CONTINUOUS
 10
413.240128
 20
2907.0
 30
0.0
 11
421.573461
 21
2907.0
 31
0.0
 12
417.406794
 22
2932.0
 32
0.0
 13
417.406794
 23
2932.0
 33
0.0
  0
LINE
  5
74
  8
DIMENSIONS
  6
CONTINUOUS
 10
417.406794
 20
2907.0
 30
0.0
 11
417.406794
 21
2882.0
 31
0.0
  0
TEXT
  5
75
  8
DIMENSIONS
  6
CONTINUOUS
 10
430.000343
 20
3017.849541
 30
0.0
 40
25.0
  1
23
 50
90.0
  0
SOLID
  5
76
  8
DIMENSIONS
  6
CONTINUOUS
 10
413.240128
 20
2980.0
 30
0.0
 11
421.573461
 21
2980.0
 31
0.0
 12
417.406794
 22
2955.0
 32
0.0
 13
417.406794
 23
2955.0
 33
0.0
  0
LINE
  5
77
  8
DIMENSIONS
  6
CONTINUOUS
 10
421.558215
 20
2955.0
 30
0.0
 11
413.046477
 21
2955.0
 31
0.0
  0
LINE
  5
78
  8
DIMENSIONS
  6
CONTINUOUS
 10
421.558215
 20
2932.0
 30
0.0
 11
413.046477
 21
2932.0
 31
0.0
  0
LINE
  5
79
  8
DIMENSIONS
  6
CONTINUOUS
 10
417.406794
 20
2980.0
 30
0.0
 11
417.406794
 21
3009.484175
 31
0.0
  0
LINE
  5
7A
  8
DETAIL
  6
DASHED
 10
506.5
 20
2920.0
 30
0.0
 11
506.5
 21
2713.180667
 31
0.0
  0
SOLID
  5
7B
  8
DIMENSIONS
  6
CONTINUOUS
 10
527.439424
 20
2895.0
 30
0.0
 11
535.772758
 21
2895.0
 31
0.0
 12
531.606091
 22
2920.0
 32
0.0
 13
531.606091
 23
2920.0
 33
0.0
  0
LINE
  5
7C
  8
DIMENSIONS
  6
CONTINUOUS
 10
531.606091
 20
2895.0
 30
0.0
 11
531.606091
 21
2870.0
 31
0.0
  0
LINE
  5
7D
  8
DIMENSIONS
  6
CONTINUOUS
 10
535.048197
 20
2920.0
 30
0.0
 11
525.827144
 21
2920.0
 31
0.0
  0
TEXT
  5
7E
  8
DIMENSIONS
  6
CONTINUOUS
 10
543.490346
 20
3019.267266
 30
0.0
 40
25.0
  1
35
 50
90.0
  0
SOLID
  5
7F
  8
DIMENSIONS
  6
CONTINUOUS
 10
527.439424
 20
2980.0
 30
0.0
 11
535.772758
 21
2980.0
 31
0.0
 12
531.606091
 22
2955.0
 32
0.0
 13
531.606091
 23
2955.0
 33
0.0
  0
LINE
  5
80
  8
DIMENSIONS
  6
CONTINUOUS
 10
531.606091
 20
2980.0
 30
0.0
 11
531.606091
 21
3012.319626
 31
0.0
  0
LINE
  5
81
  8
DIMENSIONS
  6
CONTINUOUS
 10
535.048197
 20
2955.0
 30
0.0
 11
525.827144
 21
2955.0
 31
0.0
  0
SOLID
  5
82
  8
STELTXT
 10
593.80331
 20
2892.529879
 30
0.0
 11
601.628615
 21
2895.395021
 31
0.0
 12
589.120538
 22
2917.438367
 32
0.0
 13
589.120538
 23
2917.438367
 33
0.0
  0
LINE
  5
83
  8
DETAIL
  6
DASHED
 10
665.5
 20
2920.0
 30
0.0
 11
665.5
 21
2713.180667
 31
0.0
  0
LINE
  5
84
  8
CENTER
 10
731.0
 20
2881.296362
 30
0.0
 11
731.0
 21
3070.976441
 31
0.0
  0
LINE
  5
85
  8
DIMENSIONS
 10
25.0
 20
3995.994123
 30
0.0
 11
561.0
 21
3995.994123
 31
0.0
  0
LINE
  5
86
  8
DIMENSIONS
 10
460.483443
 20
3164.0
 30
0.0
 11
116.914164
 21
3164.0
 31
0.0
  0
SOLID
  5
87
  8
DIMENSIONS
 10
25.0
 20
4000.16079
 30
0.0
 11
25.0
 21
3991.827456
 31
0.0
 12
0.0
 22
3995.994123
 32
0.0
 13
0.0
 23
3995.994123
 33
0.0
  0
TEXT
  5
88
  8
DIMENSIONS
 10
282.285714
 20
4020.994123
 30
0.0
 40
25.0
  1
=
 72
     1
 11
293.0
 21
4033.494123
 31
0.0
 73
     2
  0
SOLID
  5
89
  8
DIMENSIONS
 10
25.0
 20
4172.797603
 30
0.0
 11
25.0
 21
4164.46427
 31
0.0
 12
0.0
 22
4168.630937
 32
0.0
 13
0.0
 23
4168.630937
 33
0.0
  0
SOLID
  5
8A
  8
DIMENSIONS
 10
561.0
 20
4000.16079
 30
0.0
 11
561.0
 21
3991.827456
 31
0.0
 12
586.0
 22
3995.994123
 32
0.0
 13
586.0
 23
3995.994123
 33
0.0
  0
LINE
  5
8B
  8
CENTER
 10
475.483443
 20
3164.0
 30
0.0
 11
696.516557
 21
3164.0
 31
0.0
  0
LINE
  5
8C
  8
DIMENSIONS
 10
586.0
 20
3338.357286
 30
0.0
 11
586.0
 21
4010.994123
 31
0.0
  0
LINE
  5
90
  8
DIMENSIONS
 10
586.0
 20
3297.516557
 30
0.0
 11
586.0
 21
3338.357286
 31
0.0
  0
LINE
  5
92
  8
STELTXT
 10
692.791182
 20
3159.870621
 30
0.0
 11
750.05962
 21
3147.580862
 31
0.0
  0
SOLID
  5
93
  8
STELTXT
 10
691.916923
 20
3155.796706
 30
0.0
 11
693.66544
 21
3163.944536
 31
0.0
 12
668.347692
 22
3165.116174
 32
0.0
 13
668.347692
 23
3165.116174
 33
0.0
  0
SOLID
  5
94
  8
DIMENSIONS
 10
611.0
 20
4000.16079
 30
0.0
 11
611.0
 21
3991.827456
 31
0.0
 12
586.0
 22
3995.994123
 32
0.0
 13
586.0
 23
3995.994123
 33
0.0
  0
TEXT
  5
95
  8
DIMENSIONS
 10
546.714286
 20
4193.630937
 30
0.0
 40
25.0
  1
1172
 72
     1
 11
586.0
 21
4206.130937
 31
0.0
 73
     2
  0
LINE
  5
97
  8
DETAIL
 10
805.975589
 20
2955.0
 30
0.0
 11
805.975589
 21
180.0
 31
0.0
  0
LINE
  5
98
  8
DETAIL
 10
1172.0
 20
2955.0
 30
0.0
 11
1172.0
 21
0.0
 31
0.0
  0
TEXT
  5
99
  8
STELTXT
 10
1489.764552
 20
-240.86494
 30
0.0
 40
25.0
  1
BURNER PLATE
  0
TEXT
  5
9A
  8
STELTXT
 10
1489.764552
 20
-279.650612
 30
0.0
 40
25.0
  1
CENTRE LINE
  0
TEXT
  5
9D
  8
STELTXT
 10
1488.827186
 20
-92.771116
 30
0.0
 40
25.0
  1
PANEL(Optional)
  0
TEXT
  5
9E
  8
STELTXT
 10
1488.827186
 20
-52.771116
 30
0.0
 40
25.0
  1
DELUXE CONTROL
  0
LINE
  5
9F
  8
DETAIL
 10
1172.0
 20
0.0
 30
0.0
 11
964.0
 21
0.0
 31
0.0
  0
LINE
  5
A1
  8
STELTXT
 10
820.435604
 20
-248.422271
 30
0.0
 11
1451.965277
 21
-248.422271
 31
0.0
  0
LINE
  5
A2
  8
STELTXT
 10
990.818599
 20
-62.79104
 30
0.0
 11
1479.302121
 21
-62.791211
 31
0.0
  0
LINE
  5
A3
  8
DETAIL
 10
964.0
 20
180.0
 30
0.0
 11
964.0
 21
-175.0
 31
0.0
  0
LINE
  5
A4
  8
DETAIL
 10
929.216707
 20
180.0
 30
0.0
 11
929.216707
 21
-175.0
 31
0.0
  0
LINE
  5
A5
  8
DIMENSIONS
 10
954.5
 20
-190.0
 30
0.0
 11
954.5
 21
-363.515078
 31
0.0
  0
SOLID
  5
A6
  8
DIMENSIONS
 10
929.5
 20
-344.348411
 30
0.0
 11
929.5
 21
-352.681745
 31
0.0
 12
954.5
 22
-348.515078
 32
0.0
 13
954.5
 23
-348.515078
 33
0.0
  0
LINE
  5
A7
  8
DETAIL
  6
DASHED
 10
887.246017
 20
0.0
 30
0.0
 11
887.246017
 21
-17.0
 31
0.0
  0
SOLID
  5
A8
  8
STELTXT
 10
990.818597
 20
-66.957707
 30
0.0
 11
990.8186
 21
-58.624374
 31
0.0
 12
965.818599
 22
-62.791032
 32
0.0
 13
965.818599
 23
-62.791032
 33
0.0
  0
TEXT
  5
A9
  8
STELTXT
 10
1488.906956
 20
3112.813342
 30
0.0
 40
25.0
  1
FLANGE (TO BE WELDED)
  0
TEXT
  5
AA
  8
STELTXT
 10
1488.906956
 20
3152.813342
 30
0.0
 40
25.0
  1
%%C159mm WATER FLOW 
  0
TEXT
  5
AC
  8
STELTXT
 10
1492.811866
 20
3032.529186
 30
0.0
 40
25.0
  1
PLAIN PLATE TO BE CUT
  0
TEXT
  5
AD
  8
STELTXT
 10
1489.556891
 20
2369.326425
 30
0.0
 40
25.0
  1
FLANGE (TO BE WELDED)
  0
TEXT
  5
AE
  8
STELTXT
 10
1489.556891
 20
2409.326425
 30
0.0
 40
25.0
  1
%%C159mm WATER RETURN 
  0
TEXT
  5
AF
  8
STELTXT
 10
1492.811866
 20
2991.633893
 30
0.0
 40
25.0
  1
500mm X 700mm MAXIMUM
  0
LINE
  5
B0
  8
DIMENSIONS
 10
1172.0
 20
2970.0
 30
0.0
 11
1172.0
 21
4183.630937
 31
0.0
  0
LINE
  5
B2
  8
STELTXT
 10
1048.190193
 20
3029.95091
 30
0.0
 11
1451.965277
 21
3029.95091
 31
0.0
  0
LINE
  5
B3
  8
STELTXT
 10
776.551981
 20
2405.523558
 30
0.0
 11
1451.965277
 21
2405.523558
 31
0.0
  0
LINE
  5
B4
  8
STELTXT
 10
856.469839
 20
2945.461851
 30
0.0
 11
1048.190193
 21
3029.95091
 31
0.0
  0
SOLID
  5
B6
  8
STELTXT
 10
858.150117
 20
2941.649008
 30
0.0
 11
854.789561
 21
2949.274695
 31
0.0
 12
833.592778
 22
2935.380181
 32
0.0
 13
833.592778
 23
2935.380181
 33
0.0
  0
SOLID
  5
B7
  8
DIMENSIONS
 10
1147.0
 20
4172.797603
 30
0.0
 11
1147.0
 21
4164.46427
 31
0.0
 12
1172.0
 22
4168.630937
 32
0.0
 13
1172.0
 23
4168.630937
 33
0.0
  0
SOLID
  5
B8
  8
DIMENSIONS
 10
1147.0
 20
4000.16079
 30
0.0
 11
1147.0
 21
3991.827456
 31
0.0
 12
1172.0
 22
3995.994123
 32
0.0
 13
1172.0
 23
3995.994123
 33
0.0
  0
TEXT
  5
B9
  8
DIMENSIONS
 10
868.285714
 20
4020.994123
 30
0.0
 40
25.0
  1
=
 72
     1
 11
879.0
 21
4033.494123
 31
0.0
 73
     2
  0
SOLID
  5
E6
  8
DIMENSIONS
  6
CONTINUOUS
 10
368.575679
 20
25.0
 30
0.0
 11
376.909012
 21
25.0
 31
0.0
 12
372.742345
 22
0.0
 32
0.0
 13
372.742345
 23
0.0
 33
0.0
  0
LINE
  5
E7
  8
DIMENSIONS
  6
CONTINUOUS
 10
384.791581
 20
-17.0
 30
0.0
 11
361.606527
 21
-17.0
 31
0.0
  0
LINE
  5
E8
  8
DIMENSIONS
  6
CONTINUOUS
 10
384.791581
 20
0.0
 30
0.0
 11
361.606527
 21
0.0
 31
0.0
  0
SOLID
  5
E9
  8
DIMENSIONS
  6
CONTINUOUS
 10
368.575679
 20
-42.0
 30
0.0
 11
376.909012
 21
-42.0
 31
0.0
 12
372.742345
 22
-17.0
 32
0.0
 13
372.742345
 23
-17.0
 33
0.0
  0
LINE
  5
EA
  8
DIMENSIONS
  6
CONTINUOUS
 10
372.742345
 20
-42.0
 30
0.0
 11
372.742345
 21
-67.0
 31
0.0
  0
TEXT
  5
EB
  8
DIMENSIONS
  6
CONTINUOUS
 10
383.807963
 20
68.111387
 30
0.0
 40
25.0
  1
17
 50
90.0
  0
LINE
  5
EC
  8
DIMENSIONS
  6
CONTINUOUS
 10
372.742345
 20
25.0
 30
0.0
 11
372.742345
 21
59.79339
 31
0.0
  0
LINE
  5
117
  8
DETAIL
  6
DASHED
 10
936.0
 20
2832.0
 30
0.0
 11
936.0
 21
2932.0
 31
0.0
  0
ATTDEF
  5
19A
  8
STELATT
 10
507.240227
 20
-561.324227
 30
0.0
 40
40.0
  1
21
 72
     4
 11
600.57356
 21
-541.324227
 31
0.0
  3

  2
MODEL
 70
     2
  0
ATTDEF
  5
19B
  8
STELATT
 10
532.002132
 20
-491.324227
 30
0.0
 40
40.0
  1
VISCOUNT GTE
 72
     4
 11
600.57356
 21
-471.324227
 31
0.0
  3

  2
TYPE
 70
     2
  0
ATTDEF
  5
19C
  8
STELATT
 10
367.240227
 20
-421.324227
 30
0.0
 40
40.0
  1
IDEAL
 72
     4
 11
600.57356
 21
-401.324227
 31
0.0
  3

  2
MANUFACTURER
 70
     2
  0
LINE
  5
1E0
  8
PLANNING
 10
1672.0
 20
3255.0
 30
0.0
 11
1672.0
 21
-1675.0
 31
0.0
  0
LINE
  5
1E2
  8
PLANNING
 10
1672.0
 20
-1675.0
 30
0.0
 11
-1200.0
 21
-1675.0
 31
0.0
  0
LINE
  5
1E5
  8
PLANNING
 10
-1200.0
 20
3255.0
 30
0.0
 11
1672.0
 21
3255.0
 31
0.0
  0
LINE
  5
1E8
  8
PLANNING
 10
-1200.0
 20
3255.0
 30
0.0
 11
-1200.0
 21
-1675.0
 31
0.0
  0
ENDSEC
  0
EOF
