  0
SECTION
  2
HEADER
  9
$ACADVER
  1
AC1009
  9
$INSBASE
 10
0.0
 20
0.0
 30
0.0
  9
$EXTMIN
 10
-1200.197263
 20
-1675.397542
 30
0.0
  9
$EXTMAX
 10
2032.294873
 20
4839.02854
 30
0.0
  9
$LIMMIN
 10
0.0
 20
0.0
  9
$LIMMAX
 10
420.0
 20
297.0
  9
$ORTHOMODE
 70
     1
  9
$REGENMODE
 70
     1
  9
$FILLMODE
 70
     1
  9
$QTEXTMODE
 70
     0
  9
$MIRRTEXT
 70
     0
  9
$DRAGMODE
 70
     2
  9
$LTSCALE
 40
25.0
  9
$OSMODE
 70
     0
  9
$ATTMODE
 70
     1
  9
$TEXTSIZE
 40
3.0
  9
$TRACEWID
 40
10.0
  9
$TEXTSTYLE
  7
STANDARD
  9
$CLAYER
  8
0
  9
$CELTYPE
  6
DASHED
  9
$CECOLOR
 62
   256
  9
$DIMSCALE
 40
1.0
  9
$DIMASZ
 40
25.0
  9
$DIMEXO
 40
15.0
  9
$DIMDLI
 40
10.0
  9
$DIMRND
 40
0.0
  9
$DIMDLE
 40
1.25
  9
$DIMEXE
 40
15.0
  9
$DIMTP
 40
0.0
  9
$DIMTM
 40
0.0
  9
$DIMTXT
 40
25.0
  9
$DIMCEN
 40
-3.0
  9
$DIMTSZ
 40
0.0
  9
$DIMTOL
 70
     0
  9
$DIMLIM
 70
     0
  9
$DIMTIH
 70
     0
  9
$DIMTOH
 70
     0
  9
$DIMSE1
 70
     0
  9
$DIMSE2
 70
     0
  9
$DIMTAD
 70
     0
  9
$DIMZIN
 70
     1
  9
$DIMBLK
  1

  9
$DIMASO
 70
     0
  9
$DIMSHO
 70
     0
  9
$DIMPOST
  1

  9
$DIMAPOST
  1

  9
$DIMALT
 70
     0
  9
$DIMALTD
 70
     2
  9
$DIMALTF
 40
0.039
  9
$DIMLFAC
 40
1.0
  9
$DIMTOFL
 70
     0
  9
$DIMTVP
 40
1.5
  9
$DIMTIX
 70
     0
  9
$DIMSOXD
 70
     0
  9
$DIMSAH
 70
     0
  9
$DIMBLK1
  1

  9
$DIMBLK2
  1

  9
$DIMSTYLE
  2
STANDARD
  9
$DIMCLRD
 70
     0
  9
$DIMCLRE
 70
     0
  9
$DIMCLRT
 70
     0
  9
$DIMTFAC
 40
1.0
  9
$DIMGAP
 40
0.09
  9
$LUNITS
 70
     2
  9
$LUPREC
 70
     2
  9
$SKETCHINC
 40
1.0
  9
$FILLETRAD
 40
0.0
  9
$AUNITS
 70
     0
  9
$AUPREC
 70
     4
  9
$MENU
  1
acad
  9
$ELEVATION
 40
0.0
  9
$PELEVATION
 40
0.0
  9
$THICKNESS
 40
0.0
  9
$LIMCHECK
 70
     0
  9
$BLIPMODE
 70
     0
  9
$CHAMFERA
 40
66.0
  9
$CHAMFERB
 40
66.0
  9
$SKPOLY
 70
     1
  9
$TDCREATE
 40
2450093.509149
  9
$TDUPDATE
 40
2453073.535062
  9
$TDINDWG
 40
0.056311
  9
$TDUSRTIMER
 40
0.056311
  9
$USRTIMER
 70
     1
  9
$ANGBASE
 50
0.0
  9
$ANGDIR
 70
     0
  9
$PDMODE
 70
     3
  9
$PDSIZE
 40
0.0
  9
$PLINEWID
 40
0.0
  9
$COORDS
 70
     1
  9
$SPLFRAME
 70
     0
  9
$SPLINETYPE
 70
     6
  9
$SPLINESEGS
 70
     6
  9
$ATTDIA
 70
     0
  9
$ATTREQ
 70
     1
  9
$HANDLING
 70
 22529
  9
$HANDSEED
  5
25B
  9
$SURFTAB1
 70
    12
  9
$SURFTAB2
 70
    12
  9
$SURFTYPE
 70
     6
  9
$SURFU
 70
    12
  9
$SURFV
 70
    12
  9
$UCSNAME
  2

  9
$UCSORG
 10
0.0
 20
0.0
 30
0.0
  9
$UCSXDIR
 10
1.0
 20
0.0
 30
0.0
  9
$UCSYDIR
 10
0.0
 20
1.0
 30
0.0
  9
$PUCSNAME
  2

  9
$PUCSORG
 10
0.0
 20
0.0
 30
0.0
  9
$PUCSXDIR
 10
1.0
 20
0.0
 30
0.0
  9
$PUCSYDIR
 10
0.0
 20
1.0
 30
0.0
  9
$USERI1
 70
     0
  9
$USERI2
 70
     0
  9
$USERI3
 70
     0
  9
$USERI4
 70
     0
  9
$USERI5
 70
     0
  9
$USERR1
 40
0.0
  9
$USERR2
 40
0.0
  9
$USERR3
 40
0.0
  9
$USERR4
 40
0.0
  9
$USERR5
 40
0.0
  9
$WORLDVIEW
 70
     0
  9
$SHADEDGE
 70
     3
  9
$SHADEDIF
 70
    70
  9
$TILEMODE
 70
     1
  9
$MAXACTVP
 70
    16
  9
$PLIMCHECK
 70
     0
  9
$PEXTMIN
 10
1.000000E+020
 20
1.000000E+020
 30
1.000000E+020
  9
$PEXTMAX
 10
-1.000000E+020
 20
-1.000000E+020
 30
-1.000000E+020
  9
$PLIMMIN
 10
0.0
 20
0.0
  9
$PLIMMAX
 10
12.0
 20
9.0
  9
$UNITMODE
 70
     0
  9
$VISRETAIN
 70
     0
  9
$PLINEGEN
 70
     0
  9
$PSLTSCALE
 70
     0
  0
ENDSEC
  0
SECTION
  2
TABLES
  0
TABLE
  2
VPORT
 70
     2
  0
VPORT
  2
*ACTIVE
 70
     0
 10
0.0
 20
0.0
 11
1.0
 21
1.0
 12
416.048805
 22
1581.815499
 13
0.0
 23
0.0
 14
10.0
 24
10.0
 15
0.0
 25
0.0
 16
0.0
 26
0.0
 36
1.0
 17
0.0
 27
0.0
 37
0.0
 40
6589.448263
 41
1.825
 42
50.0
 43
0.0
 44
0.0
 50
0.0
 51
0.0
 71
     0
 72
 20000
 73
     1
 74
     2
 75
     0
 76
     0
 77
     0
 78
     2
  0
ENDTAB
  0
TABLE
  2
LTYPE
 70
     3
  0
LTYPE
  2
CONTINUOUS
 70
     0
  3
Solid line
 72
    65
 73
     0
 40
0.0
  0
LTYPE
  2
CENTER
 70
     0
  3
____ _ ____ _ ____ _ ____ _ ____ _ ____ _ ____
 72
    65
 73
     4
 40
2.0
 49
1.25
 49
-0.25
 49
0.25
 49
-0.25
  0
LTYPE
  2
DASHED
 70
     0
  3
__ __ __ __ __ __ __ __ __ __ __ __ __ __ __
 72
    65
 73
     2
 40
0.75
 49
0.5
 49
-0.25
  0
ENDTAB
  0
TABLE
  2
LAYER
 70
     8
  0
LAYER
  2
0
 70
     0
 62
     7
  6
CONTINUOUS
  0
LAYER
  2
DETAIL
 70
     0
 62
     2
  6
CONTINUOUS
  0
LAYER
  2
DIMENSIONS
 70
     0
 62
     7
  6
CONTINUOUS
  0
LAYER
  2
CENTER
 70
     0
 62
     4
  6
CENTER
  0
LAYER
  2
ORIGIN
 70
     0
 62
     6
  6
CONTINUOUS
  0
LAYER
  2
PLANNING
 70
     0
 62
     1
  6
DASHED
  0
LAYER
  2
STELTXT
 70
     0
 62
     4
  6
CONTINUOUS
  0
LAYER
  2
STELATT
 70
     0
 62
     7
  6
CONTINUOUS
  0
ENDTAB
  0
TABLE
  2
STYLE
 70
     1
  0
STYLE
  2
STANDARD
 70
     0
 40
0.0
 41
1.0
 50
0.0
 71
     0
 42
3.0
  3
simplex
  4

  0
ENDTAB
  0
TABLE
  2
VIEW
 70
     0
  0
ENDTAB
  0
TABLE
  2
UCS
 70
     0
  0
ENDTAB
  0
TABLE
  2
APPID
 70
     1
  0
APPID
  2
ACAD
 70
     0
  0
ENDTAB
  0
TABLE
  2
DIMSTYLE
 70
     1
  0
DIMSTYLE
  2
STANDARD
 70
     0
  3

  4

  5

  6

  7

 40
1.0
 41
0.18
 42
0.0625
 43
0.38
 44
0.18
 45
0.0
 46
0.0
 47
0.0
 48
0.0
140
0.18
141
0.09
142
0.0
143
25.4
144
1.0
145
0.0
146
1.0
147
0.09
 71
     0
 72
     0
 73
     1
 74
     1
 75
     0
 76
     0
 77
     0
 78
     0
170
     0
171
     2
172
     0
173
     0
174
     0
175
     0
176
     0
177
     0
178
     0
  0
ENDTAB
  0
ENDSEC
  0
SECTION
  2
BLOCKS
  0
BLOCK
  8
0
  2
$MODEL_SPACE
 70
     0
 10
0.0
 20
0.0
 30
0.0
  3
$MODEL_SPACE
  1

  0
ENDBLK
  5
1AB
  8
0
  0
BLOCK
 67
     1
  8
0
  2
$PAPER_SPACE
 70
     0
 10
0.0
 20
0.0
 30
0.0
  3
$PAPER_SPACE
  1

  0
ENDBLK
  5
1A9
 67
     1
  8
0
  0
ENDSEC
  0
SECTION
  2
ENTITIES
  0
LINE
  5
1E
  8
DETAIL
  6
DASHED
 10
236.0
 20
3165.0
 30
0.0
 11
936.0
 21
3165.0
 31
0.0
  0
LINE
  5
21
  8
DETAIL
 10
665.5
 20
3265.0
 30
0.0
 11
936.0
 21
3265.0
 31
0.0
  0
LINE
  5
24
  8
DETAIL
 10
0.0
 20
3245.0
 30
0.0
 11
1172.0
 21
3245.0
 31
0.0
  0
LINE
  5
25
  8
DETAIL
 10
954.5
 20
-175.0
 30
0.0
 11
217.5
 21
-175.0
 31
0.0
  0
LINE
  5
26
  8
DETAIL
 10
954.5
 20
180.0
 30
0.0
 11
217.5
 21
180.0
 31
0.0
  0
LINE
  5
28
  8
DIMENSIONS
 10
242.5
 20
-348.515078
 30
0.0
 11
929.5
 21
-348.515078
 31
0.0
  0
LINE
  5
29
  8
DETAIL
  6
DASHED
 10
217.5
 20
0.0
 30
0.0
 11
954.5
 21
0.0
 31
0.0
  0
LINE
  5
2A
  8
DETAIL
  6
DASHED
 10
284.753983
 20
-17.0
 30
0.0
 11
887.246017
 21
-17.0
 31
0.0
  0
LINE
  5
2B
  8
DIMENSIONS
 10
25.0
 20
4788.630937
 30
0.0
 11
1147.0
 21
4788.630937
 31
0.0
  0
LINE
  5
2C
  8
STELTXT
 10
613.905744
 20
-42.702278
 30
0.0
 11
820.435604
 21
-248.422271
 31
0.0
  0
LINE
  5
2F
  8
STELTXT
 10
790.848303
 20
2695.523558
 30
0.0
 11
1451.965277
 21
2695.523558
 31
0.0
  0
LINE
  5
30
  8
DIMENSIONS
 10
1147.0
 20
4615.994123
 30
0.0
 11
611.0
 21
4615.994123
 31
0.0
  0
LINE
  5
32
  8
STELTXT
 10
695.247847
 20
3481.479115
 30
0.0
 11
899.807134
 21
3437.580862
 31
0.0
  0
LINE
  5
33
  8
DETAIL
 10
0.0
 20
0.0
 30
0.0
 11
0.0
 21
3245.0
 31
0.0
  0
LINE
  5
34
  8
DETAIL
 10
366.024411
 20
180.0
 30
0.0
 11
366.024411
 21
3245.0
 31
0.0
  0
LINE
  5
35
  8
DIMENSIONS
 10
-231.588818
 20
3220.0
 30
0.0
 11
-231.588818
 21
25.0
 31
0.0
  0
LINE
  5
37
  8
DIMENSIONS
  6
CONTINUOUS
 10
202.5
 20
-175.0
 30
0.0
 11
-247.409198
 21
-175.0
 31
0.0
  0
POLYLINE
  5
38
  8
ORIGIN
 66
     1
 10
0.0
 20
0.0
 30
0.0
  0
VERTEX
  5
252
  8
ORIGIN
 10
0.0
 20
0.0
 30
0.0
  0
VERTEX
  5
253
  8
ORIGIN
 10
-100.0
 20
-100.0
 30
0.0
  0
VERTEX
  5
254
  8
ORIGIN
 10
-100.0
 20
100.0
 30
0.0
  0
VERTEX
  5
255
  8
ORIGIN
 10
100.0
 20
-100.0
 30
0.0
  0
VERTEX
  5
256
  8
ORIGIN
 10
100.0
 20
100.0
 30
0.0
  0
VERTEX
  5
257
  8
ORIGIN
 10
0.0
 20
0.0
 30
0.0
  0
SEQEND
  5
258
  8
ORIGIN
  0
LINE
  5
41
  8
DIMENSIONS
 10
-15.0
 20
0.0
 30
0.0
 11
-246.588818
 21
0.0
 31
0.0
  0
LINE
  5
42
  8
DIMENSIONS
  6
CONTINUOUS
 10
-231.589198
 20
-150.0
 30
0.0
 11
-231.589198
 21
-25.0
 31
0.0
  0
TEXT
  5
43
  8
DIMENSIONS
  6
CONTINUOUS
 10
-261.422252
 20
-112.431901
 30
0.0
 40
25.0
  1
175
 50
90.0
  0
SOLID
  5
44
  8
DIMENSIONS
  6
CONTINUOUS
 10
-235.755864
 20
-150.0
 30
0.0
 11
-227.422531
 21
-150.0
 31
0.0
 12
-231.589198
 22
-175.0
 32
0.0
 13
-231.589198
 23
-175.0
 33
0.0
  0
SOLID
  5
45
  8
DIMENSIONS
  6
CONTINUOUS
 10
-235.755864
 20
-25.0
 30
0.0
 11
-227.422531
 21
-25.0
 31
0.0
 12
-231.589198
 22
0.0
 32
0.0
 13
-231.589198
 23
0.0
 33
0.0
  0
SOLID
  5
46
  8
DIMENSIONS
 10
-227.422151
 20
25.0
 30
0.0
 11
-235.755485
 21
25.0
 31
0.0
 12
-231.588818
 22
0.0
 32
0.0
 13
-231.588818
 23
0.0
 33
0.0
  0
TEXT
  5
47
  8
DIMENSIONS
 10
-248.408288
 20
1545.732558
 30
0.0
 40
25.0
  1
3245
 50
90.0
 72
     4
 11
-260.908288
 21
1589.780177
 31
0.0
  0
TEXT
  5
48
  8
DIMENSIONS
 10
553.857143
 20
-323.515078
 30
0.0
 40
25.0
  1
737
 72
     1
 11
586.0
 21
-311.015078
 31
0.0
 73
     2
  0
LINE
  5
49
  8
DIMENSIONS
 10
217.5
 20
-190.0
 30
0.0
 11
217.5
 21
-363.515078
 31
0.0
  0
SOLID
  5
4A
  8
DIMENSIONS
 10
242.5
 20
-344.348411
 30
0.0
 11
242.5
 21
-352.681745
 31
0.0
 12
217.5
 22
-348.515078
 32
0.0
 13
217.5
 23
-348.515078
 33
0.0
  0
LINE
  5
4B
  8
DIMENSIONS
  6
CONTINUOUS
 10
202.5
 20
180.0
 30
0.0
 11
157.847068
 21
180.0
 31
0.0
  0
LINE
  5
4C
  8
DETAIL
 10
217.5
 20
0.0
 30
0.0
 11
0.0
 21
0.0
 31
0.0
  0
LINE
  5
4D
  8
DIMENSIONS
  6
CONTINUOUS
 10
172.847068
 20
155.0
 30
0.0
 11
172.847068
 21
-150.0
 31
0.0
  0
SOLID
  5
4E
  8
DIMENSIONS
  6
CONTINUOUS
 10
168.680402
 20
-150.0
 30
0.0
 11
177.013735
 21
-150.0
 31
0.0
 12
172.847068
 22
-175.0
 32
0.0
 13
172.847068
 23
-175.0
 33
0.0
  0
TEXT
  5
4F
  8
DIMENSIONS
  6
CONTINUOUS
 10
147.847068
 20
52.267574
 30
0.0
 40
25.0
  1
355
 50
90.0
  0
SOLID
  5
50
  8
DIMENSIONS
  6
CONTINUOUS
 10
168.680402
 20
155.0
 30
0.0
 11
177.013735
 21
155.0
 31
0.0
 12
172.847068
 22
180.0
 32
0.0
 13
172.847068
 23
180.0
 33
0.0
  0
LINE
  5
51
  8
DETAIL
 10
252.283293
 20
180.0
 30
0.0
 11
252.283293
 21
-175.0
 31
0.0
  0
LINE
  5
52
  8
DETAIL
 10
217.5
 20
180.0
 30
0.0
 11
217.5
 21
-175.0
 31
0.0
  0
LINE
  5
53
  8
DETAIL
  6
DASHED
 10
284.753983
 20
0.0
 30
0.0
 11
284.753983
 21
-17.0
 31
0.0
  0
LINE
  5
54
  8
CENTER
 10
660.942474
 20
-17.0
 30
0.0
 11
511.057526
 21
-17.0
 31
0.0
  0
CIRCLE
  5
57
  8
ORIGIN
 10
586.0
 20
-17.0
 30
0.0
 40
50.0
  0
SOLID
  5
58
  8
STELTXT
 10
610.965259
 20
-45.654338
 30
0.0
 11
616.846229
 21
-39.750217
 31
0.0
 12
596.193381
 22
-25.05937
 32
0.0
 13
596.193381
 23
-25.05937
 33
0.0
  0
LINE
  5
5A
  8
CENTER
 10
586.0
 20
-91.942474
 30
0.0
 11
586.0
 21
57.942474
 31
0.0
  0
LINE
  5
5B
  8
DIMENSIONS
 10
-15.0
 20
3245.0
 30
0.0
 11
-246.588818
 21
3245.0
 31
0.0
  0
SOLID
  5
5C
  8
DIMENSIONS
 10
-227.422151
 20
3220.0
 30
0.0
 11
-235.755485
 21
3220.0
 31
0.0
 12
-231.588818
 22
3245.0
 32
0.0
 13
-231.588818
 23
3245.0
 33
0.0
  0
LINE
  5
5E
  8
DIMENSIONS
 10
586.0
 20
3628.357286
 30
0.0
 11
586.0
 21
4630.994123
 31
0.0
  0
LINE
  5
5F
  8
DIMENSIONS
 10
0.0
 20
3260.0
 30
0.0
 11
0.0
 21
4803.630937
 31
0.0
  0
TEXT
  5
60
  8
DIMENSIONS
  6
CONTINUOUS
 10
409.892791
 20
3333.302728
 30
0.0
 40
25.0
  1
20
 50
90.0
  0
SOLID
  5
61
  8
DIMENSIONS
  6
CONTINUOUS
 10
394.277563
 20
3290.0
 30
0.0
 11
402.610896
 21
3290.0
 31
0.0
 12
398.44423
 22
3265.0
 32
0.0
 13
398.44423
 23
3265.0
 33
0.0
  0
SOLID
  5
62
  8
DIMENSIONS
  6
CONTINUOUS
 10
394.277563
 20
3220.0
 30
0.0
 11
402.610896
 21
3220.0
 31
0.0
 12
398.44423
 22
3245.0
 32
0.0
 13
398.44423
 23
3245.0
 33
0.0
  0
LINE
  5
63
  8
DIMENSIONS
  6
CONTINUOUS
 10
393.818057
 20
3265.0
 30
0.0
 11
402.930204
 21
3265.0
 31
0.0
  0
LINE
  5
64
  8
DIMENSIONS
  6
CONTINUOUS
 10
393.818057
 20
3245.0
 30
0.0
 11
402.930204
 21
3245.0
 31
0.0
  0
LINE
  5
65
  8
DETAIL
 10
236.0
 20
3265.0
 30
0.0
 11
506.5
 21
3265.0
 31
0.0
  0
LINE
  5
66
  8
DIMENSIONS
 10
460.483443
 20
3497.0
 30
0.0
 11
116.914164
 21
3497.0
 31
0.0
  0
LINE
  5
67
  8
DIMENSIONS
 10
95.236294
 20
3245.0
 30
0.0
 11
282.836479
 21
3245.0
 31
0.0
  0
TEXT
  5
68
  8
DIMENSIONS
 10
112.316831
 20
3320.424162
 30
0.0
 40
25.0
  1
252
 50
90.0
 72
     4
 11
99.816831
 21
3352.567019
 31
0.0
  0
LINE
  5
69
  8
DIMENSIONS
 10
137.316831
 20
3497.0
 30
0.0
 11
137.316831
 21
3270.0
 31
0.0
  0
LINE
  5
6A
  8
DIMENSIONS
 10
95.236294
 20
3245.0
 30
0.0
 11
100.163282
 21
3245.0
 31
0.0
  0
SOLID
  5
6B
  8
DIMENSIONS
 10
133.150165
 20
3270.0
 30
0.0
 11
141.483498
 21
3270.0
 31
0.0
 12
137.316831
 22
3245.0
 32
0.0
 13
137.316831
 23
3245.0
 33
0.0
  0
SOLID
  5
6C
  8
DIMENSIONS
 10
133.150165
 20
3472.0
 30
0.0
 11
141.483498
 21
3472.0
 31
0.0
 12
137.316831
 22
3497.0
 32
0.0
 13
137.316831
 23
3497.0
 33
0.0
  0
SOLID
  5
6D
  8
DIMENSIONS
  6
CONTINUOUS
 10
200.362198
 20
3140.0
 30
0.0
 11
208.695532
 21
3140.0
 31
0.0
 12
204.528865
 22
3165.0
 32
0.0
 13
204.528865
 23
3165.0
 33
0.0
  0
LINE
  5
6E
  8
DIMENSIONS
  6
CONTINUOUS
 10
204.528865
 20
3140.0
 30
0.0
 11
204.528865
 21
3115.0
 31
0.0
  0
LINE
  5
6F
  8
DIMENSIONS
  6
CONTINUOUS
 10
224.51444
 20
3165.0
 30
0.0
 11
189.528865
 21
3165.0
 31
0.0
  0
LINE
  5
70
  8
DIMENSIONS
  6
CONTINUOUS
 10
224.51444
 20
3265.0
 30
0.0
 11
189.528865
 21
3265.0
 31
0.0
  0
TEXT
  5
71
  8
DIMENSIONS
  6
CONTINUOUS
 10
218.461651
 20
3185.238095
 30
0.0
 40
25.0
  1
100
 50
90.0
  0
SOLID
  5
72
  8
DIMENSIONS
  6
CONTINUOUS
 10
200.362198
 20
3290.0
 30
0.0
 11
208.695532
 21
3290.0
 31
0.0
 12
204.528865
 22
3265.0
 32
0.0
 13
204.528865
 23
3265.0
 33
0.0
  0
LINE
  5
73
  8
DETAIL
  6
CONTINUOUS
 10
236.0
 20
3245.0
 30
0.0
 11
236.0
 21
3265.0
 31
0.0
  0
LINE
  5
74
  8
DETAIL
  6
DASHED
 10
236.0
 20
3165.0
 30
0.0
 11
236.0
 21
3245.0
 31
0.0
  0
LINE
  5
75
  8
DIMENSIONS
  6
CONTINUOUS
 10
204.528865
 20
3290.0
 30
0.0
 11
204.528865
 21
3315.0
 31
0.0
  0
LINE
  5
76
  8
DETAIL
  6
DASHED
 10
506.5
 20
3253.0
 30
0.0
 11
665.5
 21
3253.0
 31
0.0
  0
SOLID
  5
77
  8
STELTXT
 10
592.171468
 20
3226.033055
 30
0.0
 11
599.996774
 21
3228.898196
 31
0.0
 12
587.488696
 22
3250.941543
 32
0.0
 13
587.488696
 23
3250.941543
 33
0.0
  0
LINE
  5
78
  8
CENTER
 10
475.483443
 20
3497.0
 30
0.0
 11
696.516557
 21
3497.0
 31
0.0
  0
CIRCLE
  5
79
  8
DETAIL
 10
586.0
 20
3497.0
 30
0.0
 40
79.5
  0
LINE
  5
7B
  8
DETAIL
  6
DASHED
 10
506.5
 20
3253.0
 30
0.0
 11
506.5
 21
3043.180667
 31
0.0
  0
LINE
  5
7C
  8
CENTER
 10
586.0
 20
3001.559766
 30
0.0
 11
586.0
 21
3572.516557
 31
0.0
  0
LINE
  5
7D
  8
DIMENSIONS
  6
CONTINUOUS
 10
398.44423
 20
3220.0
 30
0.0
 11
398.44423
 21
3195.0
 31
0.0
  0
LINE
  5
7E
  8
DIMENSIONS
  6
CONTINUOUS
 10
398.44423
 20
3290.0
 30
0.0
 11
398.44423
 21
3325.453309
 31
0.0
  0
LINE
  5
7F
  8
DETAIL
 10
506.5
 20
3497.0
 30
0.0
 11
506.5
 21
3243.0
 31
0.0
  0
TEXT
  5
80
  8
DIMENSIONS
  6
CONTINUOUS
 10
550.780499
 20
3321.302728
 30
0.0
 40
25.0
  1
8
 50
90.0
  0
LINE
  5
81
  8
DIMENSIONS
  6
CONTINUOUS
 10
539.331938
 20
3278.0
 30
0.0
 11
539.331938
 21
3309.342044
 31
0.0
  0
SOLID
  5
82
  8
DIMENSIONS
  6
CONTINUOUS
 10
535.165271
 20
3278.0
 30
0.0
 11
543.498604
 21
3278.0
 31
0.0
 12
539.331938
 22
3253.0
 32
0.0
 13
539.331938
 23
3253.0
 33
0.0
  0
SOLID
  5
83
  8
DIMENSIONS
  6
CONTINUOUS
 10
535.165271
 20
3220.0
 30
0.0
 11
543.498604
 21
3220.0
 31
0.0
 12
539.331938
 22
3245.0
 32
0.0
 13
539.331938
 23
3245.0
 33
0.0
  0
LINE
  5
84
  8
DIMENSIONS
  6
CONTINUOUS
 10
539.331938
 20
3220.0
 30
0.0
 11
539.331938
 21
3195.0
 31
0.0
  0
LINE
  5
85
  8
DIMENSIONS
  6
CONTINUOUS
 10
541.855279
 20
3253.0
 30
0.0
 11
534.845937
 21
3253.0
 31
0.0
  0
LINE
  5
86
  8
DIMENSIONS
  6
CONTINUOUS
 10
541.855279
 20
3245.0
 30
0.0
 11
534.845937
 21
3245.0
 31
0.0
  0
LINE
  5
87
  8
DIMENSIONS
 10
586.0
 20
3587.516557
 30
0.0
 11
586.0
 21
3628.357286
 31
0.0
  0
LINE
  5
88
  8
DETAIL
  6
DASHED
 10
665.5
 20
3253.0
 30
0.0
 11
665.5
 21
3043.180667
 31
0.0
  0
LINE
  5
89
  8
STELTXT
 10
596.084121
 20
3227.465626
 30
0.0
 11
790.848303
 21
2695.523558
 31
0.0
  0
LINE
  5
8B
  8
DETAIL
 10
665.5
 20
3497.0
 30
0.0
 11
665.5
 21
3243.0
 31
0.0
  0
SOLID
  5
8C
  8
STELTXT
 10
694.373588
 20
3477.4052
 30
0.0
 11
696.122106
 21
3485.55303
 31
0.0
 12
670.804357
 22
3486.724667
 32
0.0
 13
670.804357
 23
3486.724667
 33
0.0
  0
LINE
  5
8E
  8
CENTER
 10
731.0
 20
3171.296362
 30
0.0
 11
731.0
 21
3367.900956
 31
0.0
  0
LINE
  5
91
  8
DIMENSIONS
 10
25.0
 20
4615.994123
 30
0.0
 11
561.0
 21
4615.994123
 31
0.0
  0
SOLID
  5
92
  8
DIMENSIONS
 10
25.0
 20
4620.16079
 30
0.0
 11
25.0
 21
4611.827456
 31
0.0
 12
0.0
 22
4615.994123
 32
0.0
 13
0.0
 23
4615.994123
 33
0.0
  0
SOLID
  5
93
  8
DIMENSIONS
 10
25.0
 20
4792.797603
 30
0.0
 11
25.0
 21
4784.46427
 31
0.0
 12
0.0
 22
4788.630937
 32
0.0
 13
0.0
 23
4788.630937
 33
0.0
  0
TEXT
  5
94
  8
DIMENSIONS
 10
282.285714
 20
4640.994123
 30
0.0
 40
25.0
  1
=
 72
     1
 11
293.0
 21
4653.494123
 31
0.0
 73
     2
  0
SOLID
  5
95
  8
DIMENSIONS
 10
611.0
 20
4620.16079
 30
0.0
 11
611.0
 21
4611.827456
 31
0.0
 12
586.0
 22
4615.994123
 32
0.0
 13
586.0
 23
4615.994123
 33
0.0
  0
SOLID
  5
96
  8
DIMENSIONS
 10
561.0
 20
4620.16079
 30
0.0
 11
561.0
 21
4611.827456
 31
0.0
 12
586.0
 22
4615.994123
 32
0.0
 13
586.0
 23
4615.994123
 33
0.0
  0
TEXT
  5
97
  8
DIMENSIONS
 10
546.714286
 20
4813.630937
 30
0.0
 40
25.0
  1
1172
 72
     1
 11
586.0
 21
4826.130937
 31
0.0
 73
     2
  0
LINE
  5
98
  8
DETAIL
 10
1172.0
 20
3245.0
 30
0.0
 11
1172.0
 21
0.0
 31
0.0
  0
LINE
  5
99
  8
DETAIL
 10
805.975589
 20
3245.0
 30
0.0
 11
805.975589
 21
180.0
 31
0.0
  0
TEXT
  5
9B
  8
STELTXT
 10
1488.827186
 20
-52.771116
 30
0.0
 40
25.0
  1
DELUXE CONTROL
  0
TEXT
  5
9C
  8
STELTXT
 10
1488.827186
 20
-92.771116
 30
0.0
 40
25.0
  1
PANEL(Optional)
  0
TEXT
  5
9F
  8
STELTXT
 10
1489.764552
 20
-279.650612
 30
0.0
 40
25.0
  1
CENTRE LINE
  0
TEXT
  5
A0
  8
STELTXT
 10
1489.764552
 20
-240.86494
 30
0.0
 40
25.0
  1
BURNER PLATE
  0
LINE
  5
A1
  8
DIMENSIONS
 10
954.5
 20
-190.0
 30
0.0
 11
954.5
 21
-363.515078
 31
0.0
  0
SOLID
  5
A2
  8
DIMENSIONS
 10
929.5
 20
-344.348411
 30
0.0
 11
929.5
 21
-352.681745
 31
0.0
 12
954.5
 22
-348.515078
 32
0.0
 13
954.5
 23
-348.515078
 33
0.0
  0
LINE
  5
A3
  8
STELTXT
 10
990.818599
 20
-62.79104
 30
0.0
 11
1479.302121
 21
-62.791211
 31
0.0
  0
LINE
  5
A4
  8
STELTXT
 10
820.435604
 20
-248.422271
 30
0.0
 11
1451.965277
 21
-248.422271
 31
0.0
  0
LINE
  5
A6
  8
DETAIL
 10
1172.0
 20
0.0
 30
0.0
 11
954.5
 21
0.0
 31
0.0
  0
LINE
  5
A7
  8
DETAIL
  6
DASHED
 10
887.246017
 20
0.0
 30
0.0
 11
887.246017
 21
-17.0
 31
0.0
  0
SOLID
  5
A8
  8
STELTXT
 10
990.818597
 20
-66.957707
 30
0.0
 11
990.8186
 21
-58.624374
 31
0.0
 12
965.818599
 22
-62.791032
 32
0.0
 13
965.818599
 23
-62.791032
 33
0.0
  0
LINE
  5
A9
  8
DETAIL
 10
919.716707
 20
180.0
 30
0.0
 11
919.716707
 21
-175.0
 31
0.0
  0
LINE
  5
AA
  8
DETAIL
 10
954.5
 20
180.0
 30
0.0
 11
954.5
 21
-175.0
 31
0.0
  0
TEXT
  5
AD
  8
STELTXT
 10
1492.811866
 20
3275.201492
 30
0.0
 40
25.0
  1
500mm X 700mm MAXIMUM
  0
TEXT
  5
AE
  8
STELTXT
 10
1492.811866
 20
3316.096785
 30
0.0
 40
25.0
  1
PLAIN PLATE TO BE CUT
  0
TEXT
  5
AF
  8
STELTXT
 10
1489.556891
 20
2699.326425
 30
0.0
 40
25.0
  1
%%C159mm WATER RETURN 
  0
TEXT
  5
B0
  8
STELTXT
 10
1489.556891
 20
2659.326425
 30
0.0
 40
25.0
  1
FLANGE (TO BE WELDED)
  0
TEXT
  5
B2
  8
STELTXT
 10
1488.906956
 20
3442.813342
 30
0.0
 40
25.0
  1
%%C159mm WATER FLOW 
  0
TEXT
  5
B3
  8
STELTXT
 10
1488.906956
 20
3402.813342
 30
0.0
 40
25.0
  1
FLANGE (TO BE WELDED)
  0
LINE
  5
B4
  8
DIMENSIONS
 10
1172.0
 20
3260.0
 30
0.0
 11
1172.0
 21
4803.630937
 31
0.0
  0
LINE
  5
B6
  8
STELTXT
 10
1085.630038
 20
3313.518509
 30
0.0
 11
1451.965277
 21
3313.518509
 31
0.0
  0
LINE
  5
B8
  8
STELTXT
 10
899.807134
 20
3437.580862
 30
0.0
 11
1451.965277
 21
3437.580862
 31
0.0
  0
LINE
  5
B9
  8
STELTXT
 10
966.487803
 20
3261.013832
 30
0.0
 11
1085.630038
 21
3313.518509
 31
0.0
  0
SOLID
  5
BB
  8
STELTXT
 10
968.168081
 20
3257.200988
 30
0.0
 11
964.807524
 21
3264.826675
 31
0.0
 12
943.610741
 22
3250.932162
 32
0.0
 13
943.610741
 23
3250.932162
 33
0.0
  0
SOLID
  5
BE
  8
DIMENSIONS
 10
1147.0
 20
4620.16079
 30
0.0
 11
1147.0
 21
4611.827456
 31
0.0
 12
1172.0
 22
4615.994123
 32
0.0
 13
1172.0
 23
4615.994123
 33
0.0
  0
TEXT
  5
BF
  8
DIMENSIONS
 10
868.285714
 20
4640.994123
 30
0.0
 40
25.0
  1
=
 72
     1
 11
879.0
 21
4653.494123
 31
0.0
 73
     2
  0
SOLID
  5
C0
  8
DIMENSIONS
 10
1147.0
 20
4792.797603
 30
0.0
 11
1147.0
 21
4784.46427
 31
0.0
 12
1172.0
 22
4788.630937
 32
0.0
 13
1172.0
 23
4788.630937
 33
0.0
  0
SOLID
  5
ED
  8
DIMENSIONS
  6
CONTINUOUS
 10
368.575679
 20
25.0
 30
0.0
 11
376.909012
 21
25.0
 31
0.0
 12
372.742345
 22
0.0
 32
0.0
 13
372.742345
 23
0.0
 33
0.0
  0
LINE
  5
EE
  8
DIMENSIONS
  6
CONTINUOUS
 10
384.791581
 20
-17.0
 30
0.0
 11
361.606527
 21
-17.0
 31
0.0
  0
LINE
  5
EF
  8
DIMENSIONS
  6
CONTINUOUS
 10
384.791581
 20
0.0
 30
0.0
 11
361.606527
 21
0.0
 31
0.0
  0
SOLID
  5
F0
  8
DIMENSIONS
  6
CONTINUOUS
 10
368.575679
 20
-42.0
 30
0.0
 11
376.909012
 21
-42.0
 31
0.0
 12
372.742345
 22
-17.0
 32
0.0
 13
372.742345
 23
-17.0
 33
0.0
  0
LINE
  5
F1
  8
DIMENSIONS
  6
CONTINUOUS
 10
372.742345
 20
-42.0
 30
0.0
 11
372.742345
 21
-67.0
 31
0.0
  0
TEXT
  5
F2
  8
DIMENSIONS
  6
CONTINUOUS
 10
383.807963
 20
68.111387
 30
0.0
 40
25.0
  1
17
 50
90.0
  0
LINE
  5
F3
  8
DIMENSIONS
  6
CONTINUOUS
 10
372.742345
 20
25.0
 30
0.0
 11
372.742345
 21
59.79339
 31
0.0
  0
LINE
  5
11E
  8
DETAIL
  6
CONTINUOUS
 10
936.0
 20
3245.0
 30
0.0
 11
936.0
 21
3265.0
 31
0.0
  0
LINE
  5
11F
  8
DETAIL
  6
DASHED
 10
936.0
 20
3165.0
 30
0.0
 11
936.0
 21
3245.0
 31
0.0
  0
LINE
  5
14D
  8
DETAIL
  6
DASHED
 10
506.5
 20
3265.0
 30
0.0
 11
665.5
 21
3265.0
 31
0.0
  0
ATTDEF
  5
17F
  8
STELATT
 10
514.588854
 20
-561.324227
 30
0.0
 40
40.0
  1
24
 72
     4
 11
607.922187
 21
-541.324227
 31
0.0
  3

  2
MODEL
 70
     2
  0
ATTDEF
  5
180
  8
STELATT
 10
532.168711
 20
-491.324227
 30
0.0
 40
40.0
  1
VISCOUNT GTE
 72
     4
 11
600.74014
 21
-471.324227
 31
0.0
  3

  2
TYPE
 70
     2
  0
ATTDEF
  5
181
  8
STELATT
 10
367.406806
 20
-421.324227
 30
0.0
 40
40.0
  1
IDEAL
 72
     4
 11
600.74014
 21
-401.324227
 31
0.0
  3

  2
MANUFACTURER
 70
     2
  0
LINE
  5
1F1
  8
PLANNING
  6
DASHED
 10
-1200.0
 20
-1675.0
 30
0.0
 11
-1200.0
 21
3545.0
 31
0.0
  0
LINE
  5
1F2
  8
PLANNING
  6
DASHED
 10
1672.0
 20
-1675.0
 30
0.0
 11
1672.0
 21
3545.0
 31
0.0
  0
LINE
  5
1F3
  8
PLANNING
  6
DASHED
 10
-1200.0
 20
-1675.0
 30
0.0
 11
1672.0
 21
-1675.0
 31
0.0
  0
LINE
  5
1F4
  8
PLANNING
  6
DASHED
 10
1672.0
 20
3545.0
 30
0.0
 11
-1200.0
 21
3545.0
 31
0.0
  0
ENDSEC
  0
EOF
