  0
SECTION
  2
HEADER
  9
$ACADVER
  1
AC1009
  9
$INSBASE
 10
0.0
 20
0.0
 30
0.0
  9
$EXTMIN
 10
-100.010663
 20
-460.02224
 30
0.0
  9
$EXTMAX
 10
600.010688
 20
1000.022293
 30
0.0
  9
$LIMMIN
 10
0.0
 20
0.0
  9
$LIMMAX
 10
420.0
 20
297.0
  9
$ORTHOMODE
 70
     1
  9
$REGENMODE
 70
     1
  9
$FILLMODE
 70
     1
  9
$QTEXTMODE
 70
     0
  9
$MIRRTEXT
 70
     0
  9
$DRAGMODE
 70
     2
  9
$LTSCALE
 40
25.0
  9
$OSMODE
 70
     0
  9
$ATTMODE
 70
     1
  9
$TEXTSIZE
 40
3.0
  9
$TRACEWID
 40
10.0
  9
$TEXTSTYLE
  7
STANDARD
  9
$CLAYER
  8
0
  9
$CELTYPE
  6
BYLAYER
  9
$CECOLOR
 62
   256
  9
$DIMSCALE
 40
1.0
  9
$DIMASZ
 40
25.0
  9
$DIMEXO
 40
15.0
  9
$DIMDLI
 40
10.0
  9
$DIMRND
 40
0.0
  9
$DIMDLE
 40
1.25
  9
$DIMEXE
 40
15.0
  9
$DIMTP
 40
0.0
  9
$DIMTM
 40
0.0
  9
$DIMTXT
 40
25.0
  9
$DIMCEN
 40
-3.0
  9
$DIMTSZ
 40
0.0
  9
$DIMTOL
 70
     0
  9
$DIMLIM
 70
     0
  9
$DIMTIH
 70
     0
  9
$DIMTOH
 70
     0
  9
$DIMSE1
 70
     0
  9
$DIMSE2
 70
     0
  9
$DIMTAD
 70
     0
  9
$DIMZIN
 70
     1
  9
$DIMBLK
  1

  9
$DIMASO
 70
     0
  9
$DIMSHO
 70
     0
  9
$DIMPOST
  1

  9
$DIMAPOST
  1

  9
$DIMALT
 70
     0
  9
$DIMALTD
 70
     2
  9
$DIMALTF
 40
0.039
  9
$DIMLFAC
 40
1.0
  9
$DIMTOFL
 70
     0
  9
$DIMTVP
 40
1.5
  9
$DIMTIX
 70
     0
  9
$DIMSOXD
 70
     0
  9
$DIMSAH
 70
     0
  9
$DIMBLK1
  1

  9
$DIMBLK2
  1

  9
$DIMSTYLE
  2
STANDARD
  9
$DIMCLRD
 70
     0
  9
$DIMCLRE
 70
     0
  9
$DIMCLRT
 70
     0
  9
$DIMTFAC
 40
1.0
  9
$DIMGAP
 40
0.09
  9
$LUNITS
 70
     2
  9
$LUPREC
 70
     2
  9
$SKETCHINC
 40
1.0
  9
$FILLETRAD
 40
0.0
  9
$AUNITS
 70
     0
  9
$AUPREC
 70
     4
  9
$MENU
  1
acad
  9
$ELEVATION
 40
0.0
  9
$PELEVATION
 40
0.0
  9
$THICKNESS
 40
0.0
  9
$LIMCHECK
 70
     0
  9
$BLIPMODE
 70
     0
  9
$CHAMFERA
 40
0.0
  9
$CHAMFERB
 40
0.0
  9
$SKPOLY
 70
     1
  9
$TDCREATE
 40
2449721.505936
  9
$TDUPDATE
 40
2453073.532744
  9
$TDINDWG
 40
0.019816
  9
$TDUSRTIMER
 40
0.019816
  9
$USRTIMER
 70
     1
  9
$ANGBASE
 50
0.0
  9
$ANGDIR
 70
     0
  9
$PDMODE
 70
     3
  9
$PDSIZE
 40
0.0
  9
$PLINEWID
 40
0.0
  9
$COORDS
 70
     1
  9
$SPLFRAME
 70
     0
  9
$SPLINETYPE
 70
     6
  9
$SPLINESEGS
 70
     6
  9
$ATTDIA
 70
     0
  9
$ATTREQ
 70
     1
  9
$HANDLING
 70
 22529
  9
$HANDSEED
  5
208
  9
$SURFTAB1
 70
    12
  9
$SURFTAB2
 70
    12
  9
$SURFTYPE
 70
     6
  9
$SURFU
 70
    12
  9
$SURFV
 70
    12
  9
$UCSNAME
  2

  9
$UCSORG
 10
0.0
 20
0.0
 30
0.0
  9
$UCSXDIR
 10
1.0
 20
0.0
 30
0.0
  9
$UCSYDIR
 10
0.0
 20
1.0
 30
0.0
  9
$PUCSNAME
  2

  9
$PUCSORG
 10
0.0
 20
0.0
 30
0.0
  9
$PUCSXDIR
 10
1.0
 20
0.0
 30
0.0
  9
$PUCSYDIR
 10
0.0
 20
1.0
 30
0.0
  9
$USERI1
 70
     0
  9
$USERI2
 70
     0
  9
$USERI3
 70
     0
  9
$USERI4
 70
     0
  9
$USERI5
 70
     0
  9
$USERR1
 40
0.0
  9
$USERR2
 40
0.0
  9
$USERR3
 40
0.0
  9
$USERR4
 40
0.0
  9
$USERR5
 40
0.0
  9
$WORLDVIEW
 70
     0
  9
$SHADEDGE
 70
     3
  9
$SHADEDIF
 70
    70
  9
$TILEMODE
 70
     1
  9
$MAXACTVP
 70
    48
  9
$PLIMCHECK
 70
     0
  9
$PEXTMIN
 10
1.000000E+020
 20
1.000000E+020
 30
1.000000E+020
  9
$PEXTMAX
 10
-1.000000E+020
 20
-1.000000E+020
 30
-1.000000E+020
  9
$PLIMMIN
 10
0.0
 20
0.0
  9
$PLIMMAX
 10
12.0
 20
9.0
  9
$UNITMODE
 70
     0
  9
$VISRETAIN
 70
     0
  9
$PLINEGEN
 70
     0
  9
$PSLTSCALE
 70
     0
  0
ENDSEC
  0
SECTION
  2
TABLES
  0
TABLE
  2
VPORT
 70
     2
  0
VPORT
  2
*ACTIVE
 70
     0
 10
0.0
 20
0.0
 11
1.0
 21
1.0
 12
250.000013
 22
270.000026
 13
0.0
 23
0.0
 14
10.0
 24
10.0
 15
0.0
 25
0.0
 16
0.0
 26
0.0
 36
1.0
 17
0.0
 27
0.0
 37
0.0
 40
1476.858865
 41
1.825
 42
50.0
 43
0.0
 44
0.0
 50
0.0
 51
0.0
 71
     0
 72
  2000
 73
     1
 74
     2
 75
     0
 76
     0
 77
     0
 78
     1
  0
ENDTAB
  0
TABLE
  2
LTYPE
 70
     3
  0
LTYPE
  2
CONTINUOUS
 70
     0
  3
Solid line
 72
    65
 73
     0
 40
0.0
  0
LTYPE
  2
CENTER
 70
     0
  3
____ _ ____ _ ____ _ ____ _ ____ _ ____ _ ____
 72
    65
 73
     4
 40
2.0
 49
1.25
 49
-0.25
 49
0.25
 49
-0.25
  0
LTYPE
  2
DASHED
 70
     0
  3
__ __ __ __ __ __ __ __ __ __ __ __ __ __ __
 72
    65
 73
     2
 40
0.75
 49
0.5
 49
-0.25
  0
ENDTAB
  0
TABLE
  2
LAYER
 70
     8
  0
LAYER
  2
0
 70
     0
 62
     7
  6
CONTINUOUS
  0
LAYER
  2
DETAIL
 70
     0
 62
     2
  6
CONTINUOUS
  0
LAYER
  2
DIMENSIONS
 70
     1
 62
     7
  6
CONTINUOUS
  0
LAYER
  2
CENTER
 70
     1
 62
     4
  6
CENTER
  0
LAYER
  2
ORIGIN
 70
     0
 62
     6
  6
CONTINUOUS
  0
LAYER
  2
PLANNING
 70
     1
 62
     1
  6
DASHED
  0
LAYER
  2
STELTXT
 70
     1
 62
     4
  6
CONTINUOUS
  0
LAYER
  2
STELATT
 70
     0
 62
     7
  6
CONTINUOUS
  0
ENDTAB
  0
TABLE
  2
STYLE
 70
     1
  0
STYLE
  2
STANDARD
 70
     0
 40
0.0
 41
1.0
 50
0.0
 71
     0
 42
3.0
  3
simplex
  4

  0
ENDTAB
  0
TABLE
  2
VIEW
 70
     0
  0
ENDTAB
  0
TABLE
  2
UCS
 70
     0
  0
ENDTAB
  0
TABLE
  2
APPID
 70
     1
  0
APPID
  2
ACAD
 70
     0
  0
ENDTAB
  0
TABLE
  2
DIMSTYLE
 70
     1
  0
DIMSTYLE
  2
STANDARD
 70
     0
  3

  4

  5

  6

  7

 40
1.0
 41
0.18
 42
0.0625
 43
0.38
 44
0.18
 45
0.0
 46
0.0
 47
0.0
 48
0.0
140
0.18
141
0.09
142
0.0
143
25.4
144
1.0
145
0.0
146
1.0
147
0.09
 71
     0
 72
     0
 73
     1
 74
     1
 75
     0
 76
     0
 77
     0
 78
     0
170
     0
171
     2
172
     0
173
     0
174
     0
175
     0
176
     0
177
     0
178
     0
  0
ENDTAB
  0
ENDSEC
  0
SECTION
  2
BLOCKS
  0
BLOCK
  8
0
  2
$MODEL_SPACE
 70
     0
 10
0.0
 20
0.0
 30
0.0
  3
$MODEL_SPACE
  1

  0
ENDBLK
  5
2B
  8
0
  0
BLOCK
 67
     1
  8
0
  2
$PAPER_SPACE
 70
     0
 10
0.0
 20
0.0
 30
0.0
  3
$PAPER_SPACE
  1

  0
ENDBLK
  5
29
 67
     1
  8
0
  0
BLOCK
  8
DETAIL
  2
GRILLE
 70
     0
 10
0.0
 20
0.0
 30
0.0
  3
GRILLE
  1

  0
ARC
  5
2F
  8
DETAIL
 10
74.5
 20
29.7
 30
0.0
 40
3.0
 50
180.0
 51
0.0
  0
ARC
  5
30
  8
DETAIL
 10
74.5
 20
73.7
 30
0.0
 40
3.0
 50
0.0
 51
180.0
  0
LINE
  5
31
  8
DETAIL
 10
77.5
 20
29.7
 30
0.0
 11
77.5
 21
73.7
 31
0.0
  0
LINE
  5
32
  8
DETAIL
 10
71.5
 20
29.7
 30
0.0
 11
71.5
 21
73.7
 31
0.0
  0
ENDBLK
  5
33
  8
DETAIL
  0
ENDSEC
  0
SECTION
  2
ENTITIES
  0
LINE
  5
34
  8
DIMENSIONS
 10
0.0
 20
-15.0
 30
0.0
 11
0.0
 21
-140.0
 31
0.0
  0
LINE
  5
35
  8
DIMENSIONS
 10
25.0
 20
-125.0
 30
0.0
 11
35.0
 21
-125.0
 31
0.0
  0
SOLID
  5
36
  8
DIMENSIONS
 10
25.0
 20
-129.166667
 30
0.0
 11
25.0
 21
-120.833333
 31
0.0
 12
0.0
 22
-125.0
 32
0.0
 13
0.0
 23
-125.0
 33
0.0
  0
SOLID
  5
37
  8
DIMENSIONS
 10
35.0
 20
-129.166667
 30
0.0
 11
35.0
 21
-120.833333
 31
0.0
 12
60.0
 22
-125.0
 32
0.0
 13
60.0
 23
-125.0
 33
0.0
  0
TEXT
  5
38
  8
DIMENSIONS
 10
9.761905
 20
-100.0
 30
0.0
 40
25.0
  1
60
  0
TEXT
  5
3A
  8
DIMENSIONS
 10
549.761905
 20
-100.0
 30
0.0
 40
25.0
  1
60
  0
SOLID
  5
3B
  8
DIMENSIONS
 10
565.0
 20
-129.166667
 30
0.0
 11
565.0
 21
-120.833333
 31
0.0
 12
540.0
 22
-125.0
 32
0.0
 13
540.0
 23
-125.0
 33
0.0
  0
SOLID
  5
3C
  8
DIMENSIONS
 10
575.0
 20
-129.166667
 30
0.0
 11
575.0
 21
-120.833333
 31
0.0
 12
600.0
 22
-125.0
 32
0.0
 13
600.0
 23
-125.0
 33
0.0
  0
LINE
  5
3D
  8
DIMENSIONS
 10
575.0
 20
-125.0
 30
0.0
 11
565.0
 21
-125.0
 31
0.0
  0
LINE
  5
3E
  8
DIMENSIONS
 10
540.0
 20
-15.0
 30
0.0
 11
540.0
 21
-140.0
 31
0.0
  0
LINE
  5
3F
  8
DIMENSIONS
 10
600.0
 20
-15.0
 30
0.0
 11
600.0
 21
-140.0
 31
0.0
  0
TEXT
  5
40
  8
DIMENSIONS
 10
267.857143
 20
-100.0
 30
0.0
 40
25.0
  1
480
  0
SOLID
  5
41
  8
DIMENSIONS
 10
515.0
 20
-129.166667
 30
0.0
 11
515.0
 21
-120.833333
 31
0.0
 12
540.0
 22
-125.0
 32
0.0
 13
540.0
 23
-125.0
 33
0.0
  0
SOLID
  5
42
  8
DIMENSIONS
 10
85.0
 20
-129.166667
 30
0.0
 11
85.0
 21
-120.833333
 31
0.0
 12
60.0
 22
-125.0
 32
0.0
 13
60.0
 23
-125.0
 33
0.0
  0
LINE
  5
43
  8
DIMENSIONS
 10
85.0
 20
-125.0
 30
0.0
 11
515.0
 21
-125.0
 31
0.0
  0
LINE
  5
44
  8
DIMENSIONS
 10
540.0
 20
258.0
 30
0.0
 11
540.0
 21
-140.0
 31
0.0
  0
LINE
  5
45
  8
DIMENSIONS
 10
60.0
 20
258.0
 30
0.0
 11
60.0
 21
-140.0
 31
0.0
  0
TEXT
  5
46
  8
DIMENSIONS
 10
800.0
 20
321.857143
 30
0.0
 40
25.0
  1
705
 50
90.0
  0
SOLID
  5
47
  8
DIMENSIONS
 10
829.166667
 20
680.0
 30
0.0
 11
820.833333
 21
680.0
 31
0.0
 12
825.0
 22
705.0
 32
0.0
 13
825.0
 23
705.0
 33
0.0
  0
SOLID
  5
48
  8
DIMENSIONS
 10
829.166667
 20
25.0
 30
0.0
 11
820.833333
 21
25.0
 31
0.0
 12
825.0
 22
0.0
 32
0.0
 13
825.0
 23
0.0
 33
0.0
  0
LINE
  5
49
  8
DIMENSIONS
 10
825.0
 20
25.0
 30
0.0
 11
825.0
 21
680.0
 31
0.0
  0
LINE
  5
4A
  8
DIMENSIONS
 10
630.0
 20
705.0
 30
0.0
 11
840.0
 21
705.0
 31
0.0
  0
LINE
  5
4B
  8
DIMENSIONS
 10
583.5
 20
0.0
 30
0.0
 11
940.0
 21
0.0
 31
0.0
  0
LINE
  5
4C
  8
CENTER
 10
615.0
 20
705.0
 30
0.0
 11
465.0
 21
705.0
 31
0.0
  0
LINE
  5
4D
  8
CENTER
 10
540.0
 20
780.0
 30
0.0
 11
540.0
 21
630.0
 31
0.0
  0
LINE
  5
4E
  8
CENTER
 10
60.0
 20
780.0
 30
0.0
 11
60.0
 21
630.0
 31
0.0
  0
LINE
  5
4F
  8
CENTER
 10
135.0
 20
894.0
 30
0.0
 11
-15.0
 21
894.0
 31
0.0
  0
ATTDEF
  5
50
  8
STELATT
 10
228.282071
 20
-390.0
 30
0.0
 40
40.0
  1
CONCORD
 72
     4
 11
296.8535
 21
-370.0
 31
0.0
  3

  2
TYPE
 70
     2
  0
ATTDEF
  5
51
  8
STELATT
 10
66.666667
 20
-320.0
 30
0.0
 40
40.0
  1
IDEAL
 72
     4
 11
300.0
 21
-300.0
 31
0.0
  3

  2
MANUFACTURER
 70
     2
  0
TEXT
  5
52
  8
DIMENSIONS
 10
417.857143
 20
1150.0
 30
0.0
 40
25.0
  1
300
  0
SOLID
  5
53
  8
DIMENSIONS
 10
325.0
 20
1120.833333
 30
0.0
 11
325.0
 21
1129.166667
 31
0.0
 12
300.0
 22
1125.0
 32
0.0
 13
300.0
 23
1125.0
 33
0.0
  0
SOLID
  5
54
  8
DIMENSIONS
 10
575.0
 20
1120.833333
 30
0.0
 11
575.0
 21
1129.166667
 31
0.0
 12
600.0
 22
1125.0
 32
0.0
 13
600.0
 23
1125.0
 33
0.0
  0
LINE
  5
55
  8
DIMENSIONS
 10
575.0
 20
1125.0
 30
0.0
 11
325.0
 21
1125.0
 31
0.0
  0
LINE
  5
56
  8
DIMENSIONS
 10
300.0
 20
1090.0
 30
0.0
 11
300.0
 21
1140.0
 31
0.0
  0
LINE
  5
57
  8
DIMENSIONS
 10
600.0
 20
1015.0
 30
0.0
 11
600.0
 21
1140.0
 31
0.0
  0
TEXT
  5
58
  8
DIMENSIONS
 10
-150.0
 20
444.196548
 30
0.0
 40
25.0
  1
894
 50
90.0
  0
SOLID
  5
59
  8
DIMENSIONS
 10
-120.833333
 20
869.0
 30
0.0
 11
-129.166667
 21
869.0
 31
0.0
 12
-125.0
 22
894.0
 32
0.0
 13
-125.0
 23
894.0
 33
0.0
  0
SOLID
  5
5A
  8
DIMENSIONS
 10
-120.833333
 20
25.0
 30
0.0
 11
-129.166667
 21
25.0
 31
0.0
 12
-125.0
 22
0.0
 32
0.0
 13
-125.0
 23
0.0
 33
0.0
  0
LINE
  5
5B
  8
DIMENSIONS
 10
-125.0
 20
25.0
 30
0.0
 11
-125.0
 21
894.0
 31
0.0
  0
LINE
  5
5C
  8
DIMENSIONS
 10
-37.0
 20
894.0
 30
0.0
 11
-140.0
 21
894.0
 31
0.0
  0
LINE
  5
5D
  8
DIMENSIONS
 10
16.5
 20
0.0
 30
0.0
 11
-140.0
 21
0.0
 31
0.0
  0
LINE
  5
5E
  8
DETAIL
 10
21.0
 20
14.0
 30
0.0
 11
31.5
 21
14.0
 31
0.0
  0
LINE
  5
5F
  8
DETAIL
 10
0.0
 20
21.0
 30
0.0
 11
21.0
 21
21.0
 31
0.0
  0
LINE
  5
60
  8
DETAIL
 10
21.0
 20
21.0
 30
0.0
 11
21.0
 21
14.0
 31
0.0
  0
LINE
  5
61
  8
DETAIL
 10
31.5
 20
14.0
 30
0.0
 11
31.5
 21
0.0
 31
0.0
  0
LINE
  5
62
  8
DETAIL
 10
568.5
 20
14.0
 30
0.0
 11
568.5
 21
0.0
 31
0.0
  0
LINE
  5
63
  8
DETAIL
 10
579.0
 20
21.0
 30
0.0
 11
579.0
 21
14.0
 31
0.0
  0
LINE
  5
64
  8
DETAIL
 10
600.0
 20
21.0
 30
0.0
 11
579.0
 21
21.0
 31
0.0
  0
LINE
  5
65
  8
DETAIL
 10
579.0
 20
14.0
 30
0.0
 11
568.5
 21
14.0
 31
0.0
  0
LINE
  5
66
  8
DETAIL
 10
568.5
 20
0.0
 30
0.0
 11
31.5
 21
0.0
 31
0.0
  0
LINE
  5
68
  8
DETAIL
 10
349.0
 20
988.0
 30
0.0
 11
349.0
 21
893.0
 31
0.0
  0
LINE
  5
69
  8
DETAIL
 10
579.0
 20
988.0
 30
0.0
 11
579.0
 21
893.0
 31
0.0
  0
LINE
  5
6A
  8
DETAIL
 10
349.0
 20
988.0
 30
0.0
 11
579.0
 21
988.0
 31
0.0
  0
LINE
  5
6B
  8
CENTER
 10
300.0
 20
1075.0
 30
0.0
 11
300.0
 21
925.0
 31
0.0
  0
LINE
  5
6C
  8
CENTER
 10
60.0
 20
946.0
 30
0.0
 11
60.0
 21
796.0
 31
0.0
  0
LINE
  5
6D
  8
DETAIL
 10
579.0
 20
893.0
 30
0.0
 11
349.0
 21
893.0
 31
0.0
  0
LINE
  5
6E
  8
DETAIL
 10
600.0
 20
1000.0
 30
0.0
 11
600.0
 21
21.0
 31
0.0
  0
LINE
  5
6F
  8
DETAIL
 10
0.0
 20
1000.0
 30
0.0
 11
600.0
 21
1000.0
 31
0.0
  0
LINE
  5
70
  8
DETAIL
 10
0.0
 20
21.0
 30
0.0
 11
0.0
 21
1000.0
 31
0.0
  0
TEXT
  5
71
  8
DIMENSIONS
 10
-82.248888
 20
1150.0
 30
0.0
 40
25.0
  1
60
  0
LINE
  5
72
  8
DIMENSIONS
 10
-25.0
 20
1125.0
 30
0.0
 11
-140.0
 21
1125.0
 31
0.0
  0
SOLID
  5
73
  8
DIMENSIONS
 10
-25.0
 20
1129.166667
 30
0.0
 11
-25.0
 21
1120.833333
 31
0.0
 12
0.0
 22
1125.0
 32
0.0
 13
0.0
 23
1125.0
 33
0.0
  0
LINE
  5
74
  8
DIMENSIONS
 10
0.0
 20
1015.0
 30
0.0
 11
0.0
 21
1140.0
 31
0.0
  0
LINE
  5
75
  8
DIMENSIONS
 10
60.0
 20
802.0
 30
0.0
 11
60.0
 21
1140.0
 31
0.0
  0
SOLID
  5
76
  8
DIMENSIONS
 10
85.0
 20
1120.833333
 30
0.0
 11
85.0
 21
1129.166667
 31
0.0
 12
60.0
 22
1125.0
 32
0.0
 13
60.0
 23
1125.0
 33
0.0
  0
LINE
  5
77
  8
DIMENSIONS
 10
85.0
 20
1125.0
 30
0.0
 11
135.0
 21
1125.0
 31
0.0
  0
LINE
  5
78
  8
CENTER
 10
135.0
 20
348.0
 30
0.0
 11
-15.0
 21
348.0
 31
0.0
  0
LINE
  5
79
  8
CENTER
 10
60.0
 20
423.0
 30
0.0
 11
60.0
 21
273.0
 31
0.0
  0
LINE
  5
7A
  8
CENTER
 10
615.0
 20
348.0
 30
0.0
 11
465.0
 21
348.0
 31
0.0
  0
LINE
  5
7B
  8
CENTER
 10
540.0
 20
423.0
 30
0.0
 11
540.0
 21
273.0
 31
0.0
  0
LINE
  5
7C
  8
DIMENSIONS
 10
630.0
 20
348.0
 30
0.0
 11
740.0
 21
348.0
 31
0.0
  0
LINE
  5
7D
  8
DIMENSIONS
 10
740.0
 20
0.0
 30
0.0
 11
740.0
 21
0.0
 31
0.0
  0
LINE
  5
7E
  8
DIMENSIONS
 10
725.0
 20
323.0
 30
0.0
 11
725.0
 21
25.0
 31
0.0
  0
SOLID
  5
7F
  8
DIMENSIONS
 10
729.166667
 20
323.0
 30
0.0
 11
720.833333
 21
323.0
 31
0.0
 12
725.0
 22
348.0
 32
0.0
 13
725.0
 23
348.0
 33
0.0
  0
SOLID
  5
80
  8
DIMENSIONS
 10
729.166667
 20
25.0
 30
0.0
 11
720.833333
 21
25.0
 31
0.0
 12
725.0
 22
0.0
 32
0.0
 13
725.0
 23
0.0
 33
0.0
  0
TEXT
  5
81
  8
DIMENSIONS
 10
700.0
 20
147.214286
 30
0.0
 40
25.0
  1
348
 50
90.0
  0
LINE
  5
82
  8
PLANNING
  6
DASHED
 10
700.0
 20
0.0
 30
0.0
 11
-100.0
 21
0.0
 31
0.0
  0
LINE
  5
83
  8
PLANNING
  6
DASHED
 10
-100.0
 20
1000.0
 30
0.0
 11
700.0
 21
1000.0
 31
0.0
  0
LINE
  5
84
  8
STELTXT
 10
42.32233
 20
911.67767
 30
0.0
 11
-10.710678
 21
964.710678
 31
0.0
  0
LINE
  5
85
  8
STELTXT
 10
-10.710678
 20
964.710678
 30
0.0
 11
-148.0
 21
964.710678
 31
0.0
  0
TEXT
  5
86
  8
STELTXT
 10
-512.61127
 20
956.364798
 30
0.0
 40
25.0
  1
GAS INLET 1" BSP
  0
SOLID
  5
87
  8
STELTXT
 10
45.268609
 20
914.623948
 30
0.0
 11
39.376052
 21
908.731391
 31
0.0
 12
60.0
 22
894.0
 32
0.0
 13
60.0
 23
894.0
 33
0.0
  0
LINE
  5
88
  8
STELTXT
 10
550.146723
 20
727.848282
 30
0.0
 11
725.186064
 21
1122.0
 31
0.0
  0
SOLID
  5
89
  8
STELTXT
 10
553.95477
 20
726.157162
 30
0.0
 11
546.338676
 21
729.539403
 31
0.0
 12
540.0
 22
705.0
 32
0.0
 13
540.0
 23
705.0
 33
0.0
  0
LINE
  5
8A
  8
STELTXT
 10
829.598672
 20
1122.0
 30
0.0
 11
725.186064
 21
1122.0
 31
0.0
  0
TEXT
  5
8B
  8
STELTXT
 10
859.549078
 20
1122.0
 30
0.0
 40
25.0
  1
4 x 2" BSP TAPPINGS
  0
POLYLINE
  5
8C
  8
ORIGIN
 66
     1
 10
0.0
 20
0.0
 30
0.0
  0
VERTEX
  5
201
  8
ORIGIN
 10
0.0
 20
0.0
 30
0.0
  0
VERTEX
  5
202
  8
ORIGIN
 10
-100.0
 20
-100.0
 30
0.0
  0
VERTEX
  5
203
  8
ORIGIN
 10
-100.0
 20
100.0
 30
0.0
  0
VERTEX
  5
204
  8
ORIGIN
 10
100.0
 20
-100.0
 30
0.0
  0
VERTEX
  5
205
  8
ORIGIN
 10
100.0
 20
100.0
 30
0.0
  0
VERTEX
  5
206
  8
ORIGIN
 10
0.0
 20
0.0
 30
0.0
  0
SEQEND
  5
207
  8
ORIGIN
  0
LINE
  5
94
  8
DIMENSIONS
 10
615.0
 20
1000.0
 30
0.0
 11
955.0
 21
1000.0
 31
0.0
  0
LINE
  5
95
  8
DIMENSIONS
 10
940.0
 20
0.0
 30
0.0
 11
955.0
 21
0.0
 31
0.0
  0
LINE
  5
96
  8
DIMENSIONS
 10
940.0
 20
975.0
 30
0.0
 11
940.0
 21
25.0
 31
0.0
  0
SOLID
  5
97
  8
DIMENSIONS
 10
944.166667
 20
975.0
 30
0.0
 11
935.833333
 21
975.0
 31
0.0
 12
940.0
 22
1000.0
 32
0.0
 13
940.0
 23
1000.0
 33
0.0
  0
SOLID
  5
98
  8
DIMENSIONS
 10
944.166667
 20
25.0
 30
0.0
 11
935.833333
 21
25.0
 31
0.0
 12
940.0
 22
0.0
 32
0.0
 13
940.0
 23
0.0
 33
0.0
  0
TEXT
  5
99
  8
DIMENSIONS
 10
915.0
 20
458.333333
 30
0.0
 40
25.0
  1
1000
 50
90.0
  0
INSERT
  5
9A
  8
DETAIL
  2
GRILLE
 10
0.0
 20
0.0
 30
0.0
  0
INSERT
  5
9B
  8
DETAIL
  2
GRILLE
 10
11.0
 20
0.0
 30
0.0
  0
INSERT
  5
9C
  8
DETAIL
  2
GRILLE
 10
22.0
 20
0.0
 30
0.0
  0
INSERT
  5
9D
  8
DETAIL
  2
GRILLE
 10
33.0
 20
0.0
 30
0.0
  0
INSERT
  5
9E
  8
DETAIL
  2
GRILLE
 10
44.0
 20
0.0
 30
0.0
  0
INSERT
  5
9F
  8
DETAIL
  2
GRILLE
 10
55.0
 20
0.0
 30
0.0
  0
INSERT
  5
A0
  8
DETAIL
  2
GRILLE
 10
66.0
 20
0.0
 30
0.0
  0
INSERT
  5
A1
  8
DETAIL
  2
GRILLE
 10
77.0
 20
0.0
 30
0.0
  0
INSERT
  5
A2
  8
DETAIL
  2
GRILLE
 10
88.0
 20
0.0
 30
0.0
  0
INSERT
  5
A3
  8
DETAIL
  2
GRILLE
 10
99.0
 20
0.0
 30
0.0
  0
INSERT
  5
A4
  8
DETAIL
  2
GRILLE
 10
110.0
 20
0.0
 30
0.0
  0
INSERT
  5
A5
  8
DETAIL
  2
GRILLE
 10
121.0
 20
0.0
 30
0.0
  0
INSERT
  5
A6
  8
DETAIL
  2
GRILLE
 10
132.0
 20
0.0
 30
0.0
  0
INSERT
  5
A7
  8
DETAIL
  2
GRILLE
 10
143.0
 20
0.0
 30
0.0
  0
INSERT
  5
A8
  8
DETAIL
  2
GRILLE
 10
154.0
 20
0.0
 30
0.0
  0
INSERT
  5
A9
  8
DETAIL
  2
GRILLE
 10
165.0
 20
0.0
 30
0.0
  0
INSERT
  5
AA
  8
DETAIL
  2
GRILLE
 10
176.0
 20
0.0
 30
0.0
  0
INSERT
  5
AB
  8
DETAIL
  2
GRILLE
 10
187.0
 20
0.0
 30
0.0
  0
INSERT
  5
AC
  8
DETAIL
  2
GRILLE
 10
198.0
 20
0.0
 30
0.0
  0
INSERT
  5
AD
  8
DETAIL
  2
GRILLE
 10
209.0
 20
0.0
 30
0.0
  0
INSERT
  5
AE
  8
DETAIL
  2
GRILLE
 10
220.0
 20
0.0
 30
0.0
  0
INSERT
  5
AF
  8
DETAIL
  2
GRILLE
 10
231.0
 20
0.0
 30
0.0
  0
INSERT
  5
B0
  8
DETAIL
  2
GRILLE
 10
242.0
 20
0.0
 30
0.0
  0
INSERT
  5
B1
  8
DETAIL
  2
GRILLE
 10
253.0
 20
0.0
 30
0.0
  0
INSERT
  5
B2
  8
DETAIL
  2
GRILLE
 10
264.0
 20
0.0
 30
0.0
  0
INSERT
  5
B3
  8
DETAIL
  2
GRILLE
 10
275.0
 20
0.0
 30
0.0
  0
INSERT
  5
B4
  8
DETAIL
  2
GRILLE
 10
286.0
 20
0.0
 30
0.0
  0
INSERT
  5
B5
  8
DETAIL
  2
GRILLE
 10
297.0
 20
0.0
 30
0.0
  0
INSERT
  5
B6
  8
DETAIL
  2
GRILLE
 10
308.0
 20
0.0
 30
0.0
  0
INSERT
  5
B7
  8
DETAIL
  2
GRILLE
 10
319.0
 20
0.0
 30
0.0
  0
INSERT
  5
B8
  8
DETAIL
  2
GRILLE
 10
330.0
 20
0.0
 30
0.0
  0
INSERT
  5
B9
  8
DETAIL
  2
GRILLE
 10
341.0
 20
0.0
 30
0.0
  0
INSERT
  5
BA
  8
DETAIL
  2
GRILLE
 10
352.0
 20
0.0
 30
0.0
  0
INSERT
  5
BB
  8
DETAIL
  2
GRILLE
 10
363.0
 20
0.0
 30
0.0
  0
INSERT
  5
BC
  8
DETAIL
  2
GRILLE
 10
374.0
 20
0.0
 30
0.0
  0
INSERT
  5
BD
  8
DETAIL
  2
GRILLE
 10
385.0
 20
0.0
 30
0.0
  0
INSERT
  5
BE
  8
DETAIL
  2
GRILLE
 10
396.0
 20
0.0
 30
0.0
  0
INSERT
  5
BF
  8
DETAIL
  2
GRILLE
 10
407.0
 20
0.0
 30
0.0
  0
INSERT
  5
C0
  8
DETAIL
  2
GRILLE
 10
418.0
 20
0.0
 30
0.0
  0
INSERT
  5
C1
  8
DETAIL
  2
GRILLE
 10
429.0
 20
0.0
 30
0.0
  0
INSERT
  5
C2
  8
DETAIL
  2
GRILLE
 10
440.0
 20
0.0
 30
0.0
  0
INSERT
  5
C3
  8
DETAIL
  2
GRILLE
 10
451.0
 20
0.0
 30
0.0
  0
LINE
  5
C6
  8
DETAIL
  6
DASHED
 10
156.0
 20
980.0
 30
0.0
 11
444.0
 21
980.0
 31
0.0
  0
LINE
  5
C7
  8
DIMENSIONS
 10
156.0
 20
995.0
 30
0.0
 11
156.0
 21
1240.0
 31
0.0
  0
LINE
  5
C8
  8
DIMENSIONS
 10
444.0
 20
995.0
 30
0.0
 11
444.0
 21
1140.0
 31
0.0
  0
LINE
  5
C9
  8
DIMENSIONS
 10
156.0
 20
1225.0
 30
0.0
 11
444.0
 21
1225.0
 31
0.0
  0
SOLID
  5
CA
  8
DIMENSIONS
 10
181.0
 20
1220.833333
 30
0.0
 11
181.0
 21
1229.166667
 31
0.0
 12
156.0
 22
1225.0
 32
0.0
 13
156.0
 23
1225.0
 33
0.0
  0
SOLID
  5
CB
  8
DIMENSIONS
 10
419.0
 20
1220.833333
 30
0.0
 11
419.0
 21
1229.166667
 31
0.0
 12
444.0
 22
1225.0
 32
0.0
 13
444.0
 23
1225.0
 33
0.0
  0
TEXT
  5
CC
  8
DIMENSIONS
 10
264.285714
 20
1250.0
 30
0.0
 40
25.0
  1
288%%C
  0
TEXT
  5
CD
  8
STELTXT
 10
-213.426037
 20
1225.0
 30
0.0
 40
25.0
  1
FLUE OUTLET
  0
SOLID
  5
CE
  8
STELTXT
 10
289.743381
 20
1003.176775
 30
0.0
 11
282.781001
 21
998.597505
 31
0.0
 12
300.0
 22
980.0
 32
0.0
 13
300.0
 23
980.0
 33
0.0
  0
LINE
  5
CF
  8
STELTXT
 10
286.262191
 20
1000.88714
 30
0.0
 11
131.079102
 21
1236.829483
 31
0.0
  0
LINE
  5
D0
  8
STELTXT
 10
42.31873
 20
1236.829483
 30
0.0
 11
131.079102
 21
1236.829483
 31
0.0
  0
ATTDEF
  5
D1
  8
STELATT
 10
206.666667
 20
-460.0
 30
0.0
 40
40.0
  1
CXA 110
 72
     4
 11
300.0
 21
-440.0
 31
0.0
  3

  2
MODEL
 70
     2
  0
LINE
  5
D2
  8
DETAIL
 10
600.0
 20
744.0
 30
0.0
 11
0.0
 21
744.0
 31
0.0
  0
LINE
  5
D3
  8
DETAIL
 10
600.0
 20
762.0
 30
0.0
 11
0.0
 21
762.0
 31
0.0
  0
LINE
  5
D4
  8
DETAIL
 10
0.0
 20
881.0
 30
0.0
 11
600.0
 21
881.0
 31
0.0
  0
LINE
  5
D5
  8
DIMENSIONS
 10
444.0
 20
1190.0
 30
0.0
 11
444.0
 21
1240.0
 31
0.0
  0
LINE
  5
DC
  8
PLANNING
  6
DASHED
 10
-100.0
 20
0.0
 30
0.0
 11
-100.0
 21
1000.0
 31
0.0
  0
LINE
  5
DD
  8
PLANNING
  6
DASHED
 10
700.0
 20
1000.0
 30
0.0
 11
700.0
 21
0.0
 31
0.0
  0
LINE
  5
DF
  8
CENTER
 10
135.0
 20
705.0
 30
0.0
 11
-15.0
 21
705.0
 31
0.0
  0
CIRCLE
  5
E0
  8
DETAIL
 10
438.779294
 20
940.5
 30
0.0
 40
3.5
  0
CIRCLE
  5
E1
  8
DETAIL
 10
445.095833
 20
915.685769
 30
0.0
 40
3.5
  0
CIRCLE
  5
E2
  8
DETAIL
 10
445.095833
 20
965.314231
 30
0.0
 40
3.5
  0
CIRCLE
  5
E3
  8
DETAIL
 10
533.5
 20
940.5
 30
0.0
 40
14.0
  0
CIRCLE
  5
E4
  8
DETAIL
 10
481.600949
 20
940.5
 30
0.0
 40
3.5
  0
LINE
  5
E5
  8
DETAIL
 10
533.5
 20
954.5
 30
0.0
 11
533.5
 21
949.318859
 31
0.0
  0
LINE
  5
ED
  8
DETAIL
  6
DASHED
 10
156.0
 20
980.0
 30
0.0
 11
156.0
 21
965.0
 31
0.0
  0
LINE
  5
EE
  8
DETAIL
  6
DASHED
 10
444.0
 20
980.0
 30
0.0
 11
444.0
 21
965.0
 31
0.0
  0
ENDSEC
  0
EOF
