  0
SECTION
  2
HEADER
  9
$ACADVER
  1
AC1009
  9
$INSBASE
 10
0.0
 20
0.0
 30
0.0
  9
$EXTMIN
 10
-100.010663
 20
-1060.032165
 30
0.0
  9
$EXTMAX
 10
600.010688
 20
1042.048951
 30
0.0
  9
$LIMMIN
 10
0.0
 20
0.0
  9
$LIMMAX
 10
420.0
 20
297.0
  9
$ORTHOMODE
 70
     1
  9
$REGENMODE
 70
     1
  9
$FILLMODE
 70
     1
  9
$QTEXTMODE
 70
     0
  9
$MIRRTEXT
 70
     0
  9
$DRAGMODE
 70
     2
  9
$LTSCALE
 40
50.0
  9
$OSMODE
 70
     0
  9
$ATTMODE
 70
     1
  9
$TEXTSIZE
 40
40.0
  9
$TRACEWID
 40
10.0
  9
$TEXTSTYLE
  7
STANDARD
  9
$CLAYER
  8
0
  9
$CELTYPE
  6
BYLAYER
  9
$CECOLOR
 62
   256
  9
$DIMSCALE
 40
1.0
  9
$DIMASZ
 40
25.0
  9
$DIMEXO
 40
15.0
  9
$DIMDLI
 40
10.0
  9
$DIMRND
 40
0.0
  9
$DIMDLE
 40
1.25
  9
$DIMEXE
 40
15.0
  9
$DIMTP
 40
0.0
  9
$DIMTM
 40
0.0
  9
$DIMTXT
 40
25.0
  9
$DIMCEN
 40
-3.0
  9
$DIMTSZ
 40
0.0
  9
$DIMTOL
 70
     0
  9
$DIMLIM
 70
     0
  9
$DIMTIH
 70
     0
  9
$DIMTOH
 70
     0
  9
$DIMSE1
 70
     0
  9
$DIMSE2
 70
     0
  9
$DIMTAD
 70
     0
  9
$DIMZIN
 70
     1
  9
$DIMBLK
  1

  9
$DIMASO
 70
     0
  9
$DIMSHO
 70
     0
  9
$DIMPOST
  1

  9
$DIMAPOST
  1

  9
$DIMALT
 70
     0
  9
$DIMALTD
 70
     2
  9
$DIMALTF
 40
0.039
  9
$DIMLFAC
 40
1.0
  9
$DIMTOFL
 70
     0
  9
$DIMTVP
 40
1.5
  9
$DIMTIX
 70
     0
  9
$DIMSOXD
 70
     0
  9
$DIMSAH
 70
     0
  9
$DIMBLK1
  1

  9
$DIMBLK2
  1

  9
$DIMSTYLE
  2
STANDARD
  9
$DIMCLRD
 70
     0
  9
$DIMCLRE
 70
     0
  9
$DIMCLRT
 70
     0
  9
$DIMTFAC
 40
1.0
  9
$DIMGAP
 40
0.09
  9
$LUNITS
 70
     2
  9
$LUPREC
 70
     2
  9
$SKETCHINC
 40
1.0
  9
$FILLETRAD
 40
0.0
  9
$AUNITS
 70
     0
  9
$AUPREC
 70
     4
  9
$MENU
  1
acad
  9
$ELEVATION
 40
0.0
  9
$PELEVATION
 40
0.0
  9
$THICKNESS
 40
0.0
  9
$LIMCHECK
 70
     0
  9
$BLIPMODE
 70
     0
  9
$CHAMFERA
 40
0.0
  9
$CHAMFERB
 40
0.0
  9
$SKPOLY
 70
     1
  9
$TDCREATE
 40
2448636.562202
  9
$TDUPDATE
 40
2453073.532845
  9
$TDINDWG
 40
0.029257
  9
$TDUSRTIMER
 40
0.029257
  9
$USRTIMER
 70
     1
  9
$ANGBASE
 50
0.0
  9
$ANGDIR
 70
     0
  9
$PDMODE
 70
     3
  9
$PDSIZE
 40
0.0
  9
$PLINEWID
 40
0.0
  9
$COORDS
 70
     1
  9
$SPLFRAME
 70
     0
  9
$SPLINETYPE
 70
     6
  9
$SPLINESEGS
 70
     6
  9
$ATTDIA
 70
     0
  9
$ATTREQ
 70
     1
  9
$HANDLING
 70
 22529
  9
$HANDSEED
  5
1C1
  9
$SURFTAB1
 70
    12
  9
$SURFTAB2
 70
    12
  9
$SURFTYPE
 70
     6
  9
$SURFU
 70
    12
  9
$SURFV
 70
    12
  9
$UCSNAME
  2

  9
$UCSORG
 10
0.0
 20
0.0
 30
0.0
  9
$UCSXDIR
 10
1.0
 20
0.0
 30
0.0
  9
$UCSYDIR
 10
0.0
 20
1.0
 30
0.0
  9
$PUCSNAME
  2

  9
$PUCSORG
 10
0.0
 20
0.0
 30
0.0
  9
$PUCSXDIR
 10
1.0
 20
0.0
 30
0.0
  9
$PUCSYDIR
 10
0.0
 20
1.0
 30
0.0
  9
$USERI1
 70
     0
  9
$USERI2
 70
     0
  9
$USERI3
 70
     0
  9
$USERI4
 70
     0
  9
$USERI5
 70
     0
  9
$USERR1
 40
0.0
  9
$USERR2
 40
0.0
  9
$USERR3
 40
0.0
  9
$USERR4
 40
0.0
  9
$USERR5
 40
0.0
  9
$WORLDVIEW
 70
     0
  9
$SHADEDGE
 70
     3
  9
$SHADEDIF
 70
    70
  9
$TILEMODE
 70
     1
  9
$MAXACTVP
 70
    48
  9
$PLIMCHECK
 70
     0
  9
$PEXTMIN
 10
1.000000E+020
 20
1.000000E+020
 30
1.000000E+020
  9
$PEXTMAX
 10
-1.000000E+020
 20
-1.000000E+020
 30
-1.000000E+020
  9
$PLIMMIN
 10
0.0
 20
0.0
  9
$PLIMMAX
 10
12.0
 20
9.0
  9
$UNITMODE
 70
     0
  9
$VISRETAIN
 70
     0
  9
$PLINEGEN
 70
     0
  9
$PSLTSCALE
 70
     0
  0
ENDSEC
  0
SECTION
  2
TABLES
  0
TABLE
  2
VPORT
 70
     2
  0
VPORT
  2
*ACTIVE
 70
     0
 10
0.0
 20
0.0
 11
1.0
 21
1.0
 12
250.000013
 22
-8.991607
 13
0.0
 23
0.0
 14
10.0
 24
10.0
 15
0.0
 25
0.0
 16
0.0
 26
0.0
 36
1.0
 17
0.0
 27
0.0
 37
0.0
 40
2126.289344
 41
1.825
 42
50.0
 43
0.0
 44
0.0
 50
0.0
 51
0.0
 71
     0
 72
  2000
 73
     1
 74
     2
 75
     0
 76
     0
 77
     0
 78
     1
  0
ENDTAB
  0
TABLE
  2
LTYPE
 70
     3
  0
LTYPE
  2
CONTINUOUS
 70
     0
  3
Solid line
 72
    65
 73
     0
 40
0.0
  0
LTYPE
  2
CENTER
 70
     0
  3
____ _ ____ _ ____ _ ____ _ ____ _ ____ _ ____
 72
    65
 73
     4
 40
2.0
 49
1.25
 49
-0.25
 49
0.25
 49
-0.25
  0
LTYPE
  2
DASHED
 70
     0
  3
__ __ __ __ __ __ __ __ __ __ __ __ __ __ __
 72
    65
 73
     2
 40
0.75
 49
0.5
 49
-0.25
  0
ENDTAB
  0
TABLE
  2
LAYER
 70
     8
  0
LAYER
  2
0
 70
     0
 62
     7
  6
CONTINUOUS
  0
LAYER
  2
DETAIL
 70
     0
 62
     2
  6
CONTINUOUS
  0
LAYER
  2
DIMENSIONS
 70
     1
 62
     7
  6
CONTINUOUS
  0
LAYER
  2
CENTER
 70
     1
 62
     4
  6
CENTER
  0
LAYER
  2
ORIGIN
 70
     0
 62
     6
  6
CONTINUOUS
  0
LAYER
  2
PLANNING
 70
     1
 62
     1
  6
DASHED
  0
LAYER
  2
STELTXT
 70
     1
 62
     4
  6
CONTINUOUS
  0
LAYER
  2
STELATT
 70
     0
 62
     7
  6
CONTINUOUS
  0
ENDTAB
  0
TABLE
  2
STYLE
 70
     1
  0
STYLE
  2
STANDARD
 70
     0
 40
0.0
 41
1.0
 50
0.0
 71
     0
 42
40.0
  3
simplex
  4

  0
ENDTAB
  0
TABLE
  2
VIEW
 70
     0
  0
ENDTAB
  0
TABLE
  2
UCS
 70
     0
  0
ENDTAB
  0
TABLE
  2
APPID
 70
     1
  0
APPID
  2
ACAD
 70
     0
  0
ENDTAB
  0
TABLE
  2
DIMSTYLE
 70
     1
  0
DIMSTYLE
  2
STANDARD
 70
     0
  3

  4

  5

  6

  7

 40
1.0
 41
0.18
 42
0.0625
 43
0.38
 44
0.18
 45
0.0
 46
0.0
 47
0.0
 48
0.0
140
0.18
141
0.09
142
0.0
143
25.4
144
1.0
145
0.0
146
1.0
147
0.09
 71
     0
 72
     0
 73
     1
 74
     1
 75
     0
 76
     0
 77
     0
 78
     0
170
     0
171
     2
172
     0
173
     0
174
     0
175
     0
176
     0
177
     0
178
     0
  0
ENDTAB
  0
ENDSEC
  0
SECTION
  2
BLOCKS
  0
BLOCK
  8
0
  2
$MODEL_SPACE
 70
     0
 10
0.0
 20
0.0
 30
0.0
  3
$MODEL_SPACE
  1

  0
ENDBLK
  5
2A
  8
0
  0
BLOCK
 67
     1
  8
0
  2
$PAPER_SPACE
 70
     0
 10
0.0
 20
0.0
 30
0.0
  3
$PAPER_SPACE
  1

  0
ENDBLK
  5
28
 67
     1
  8
0
  0
ENDSEC
  0
SECTION
  2
ENTITIES
  0
LINE
  5
2D
  8
CENTER
 10
540.0
 20
742.5
 30
0.0
 11
540.0
 21
892.5
 31
0.0
  0
TEXT
  5
2E
  8
DIMENSIONS
 10
549.761905
 20
1292.0
 30
0.0
 40
25.0
  1
60
  0
SOLID
  5
30
  8
DIMENSIONS
 10
565.0
 20
1271.166667
 30
0.0
 11
565.0
 21
1262.833333
 31
0.0
 12
540.0
 22
1267.0
 32
0.0
 13
540.0
 23
1267.0
 33
0.0
  0
SOLID
  5
31
  8
DIMENSIONS
 10
575.0
 20
1271.166667
 30
0.0
 11
575.0
 21
1262.833333
 31
0.0
 12
600.0
 22
1267.0
 32
0.0
 13
600.0
 23
1267.0
 33
0.0
  0
LINE
  5
32
  8
DIMENSIONS
 10
575.0
 20
1267.0
 30
0.0
 11
565.0
 21
1267.0
 31
0.0
  0
LINE
  5
33
  8
DIMENSIONS
 10
540.0
 20
907.5
 30
0.0
 11
540.0
 21
1282.0
 31
0.0
  0
LINE
  5
34
  8
DIMENSIONS
 10
600.0
 20
1057.0
 30
0.0
 11
600.0
 21
1282.0
 31
0.0
  0
LINE
  5
35
  8
CENTER
 10
60.0
 20
742.5
 30
0.0
 11
60.0
 21
892.5
 31
0.0
  0
LINE
  5
36
  8
DIMENSIONS
 10
0.0
 20
1057.0
 30
0.0
 11
0.0
 21
1282.0
 31
0.0
  0
LINE
  5
37
  8
DIMENSIONS
 10
60.0
 20
907.5
 30
0.0
 11
60.0
 21
1282.0
 31
0.0
  0
LINE
  5
38
  8
DIMENSIONS
 10
25.0
 20
1267.0
 30
0.0
 11
35.0
 21
1267.0
 31
0.0
  0
SOLID
  5
39
  8
DIMENSIONS
 10
25.0
 20
1271.166667
 30
0.0
 11
25.0
 21
1262.833333
 31
0.0
 12
0.0
 22
1267.0
 32
0.0
 13
0.0
 23
1267.0
 33
0.0
  0
SOLID
  5
3A
  8
DIMENSIONS
 10
35.0
 20
1271.166667
 30
0.0
 11
35.0
 21
1262.833333
 31
0.0
 12
60.0
 22
1267.0
 32
0.0
 13
60.0
 23
1267.0
 33
0.0
  0
TEXT
  5
3B
  8
DIMENSIONS
 10
9.761905
 20
1292.0
 30
0.0
 40
25.0
  1
60
  0
LINE
  5
3C
  8
DIMENSIONS
 10
615.0
 20
1042.0
 30
0.0
 11
940.0
 21
1042.0
 31
0.0
  0
LINE
  5
3D
  8
CENTER
 10
453.0
 20
907.0
 30
0.0
 11
147.0
 21
907.0
 31
0.0
  0
TEXT
  5
3E
  8
DIMENSIONS
 10
417.857143
 20
1392.0
 30
0.0
 40
25.0
  1
300
  0
SOLID
  5
3F
  8
DIMENSIONS
 10
575.0
 20
1362.833333
 30
0.0
 11
575.0
 21
1371.166667
 31
0.0
 12
600.0
 22
1367.0
 32
0.0
 13
600.0
 23
1367.0
 33
0.0
  0
SOLID
  5
40
  8
DIMENSIONS
 10
325.0
 20
1362.833333
 30
0.0
 11
325.0
 21
1371.166667
 31
0.0
 12
300.0
 22
1367.0
 32
0.0
 13
300.0
 23
1367.0
 33
0.0
  0
LINE
  5
41
  8
DIMENSIONS
 10
325.0
 20
1367.0
 30
0.0
 11
575.0
 21
1367.0
 31
0.0
  0
LINE
  5
42
  8
DIMENSIONS
 10
600.0
 20
1057.0
 30
0.0
 11
600.0
 21
1382.0
 31
0.0
  0
LINE
  5
43
  8
DIMENSIONS
 10
300.0
 20
1066.0
 30
0.0
 11
300.0
 21
1180.833333
 31
0.0
  0
LINE
  5
44
  8
CENTER
 10
300.0
 20
1060.0
 30
0.0
 11
300.0
 21
754.0
 31
0.0
  0
ATTDEF
  5
45
  8
STELATT
 10
66.666667
 20
-920.0
 30
0.0
 40
40.0
  1
IDEAL
 72
     4
 11
300.0
 21
-900.0
 31
0.0
  3

  2
MANUFACTURER
 70
     2
  0
ATTDEF
  5
46
  8
STELATT
 10
251.428571
 20
-990.0
 30
0.0
 40
40.0
  1
CONCORD
 72
     4
 11
320.0
 21
-970.0
 31
0.0
  3

  2
TYPE
 70
     2
  0
ATTDEF
  5
47
  8
STELATT
 10
236.666667
 20
-1060.0
 30
0.0
 40
40.0
  1
CXA 80
 72
     4
 11
330.0
 21
-1040.0
 31
0.0
  3

  2
MODEL
 70
     2
  0
LINE
  5
48
  8
DETAIL
 10
411.529144
 20
865.5
 30
0.0
 11
600.0
 21
865.5
 31
0.0
  0
LINE
  5
49
  8
DETAIL
 10
0.0
 20
865.5
 30
0.0
 11
188.470856
 21
865.5
 31
0.0
  0
LINE
  5
4A
  8
DIMENSIONS
 10
-15.0
 20
1042.0
 30
0.0
 11
-340.0
 21
1042.0
 31
0.0
  0
LINE
  5
4B
  8
DETAIL
 10
0.0
 20
1042.0
 30
0.0
 11
600.0
 21
1042.0
 31
0.0
  0
LINE
  5
4C
  8
DETAIL
 10
600.0
 20
1042.0
 30
0.0
 11
600.0
 21
0.0
 31
0.0
  0
LINE
  5
4D
  8
DETAIL
 10
0.0
 20
1042.0
 30
0.0
 11
0.0
 21
0.0
 31
0.0
  0
LINE
  5
4E
  8
DIMENSIONS
 10
60.0
 20
1127.0
 30
0.0
 11
60.0
 21
1127.0
 31
0.0
  0
LINE
  5
4F
  8
DIMENSIONS
 10
540.0
 20
1127.0
 30
0.0
 11
540.0
 21
1127.0
 31
0.0
  0
LINE
  5
50
  8
DIMENSIONS
 10
85.0
 20
1267.0
 30
0.0
 11
515.0
 21
1267.0
 31
0.0
  0
SOLID
  5
51
  8
DIMENSIONS
 10
85.0
 20
1262.833333
 30
0.0
 11
85.0
 21
1271.166667
 31
0.0
 12
60.0
 22
1267.0
 32
0.0
 13
60.0
 23
1267.0
 33
0.0
  0
SOLID
  5
52
  8
DIMENSIONS
 10
515.0
 20
1262.833333
 30
0.0
 11
515.0
 21
1271.166667
 31
0.0
 12
540.0
 22
1267.0
 32
0.0
 13
540.0
 23
1267.0
 33
0.0
  0
TEXT
  5
53
  8
DIMENSIONS
 10
267.857143
 20
1292.0
 30
0.0
 40
25.0
  1
480
  0
LINE
  5
54
  8
DIMENSIONS
 10
300.0
 20
1327.0
 30
0.0
 11
300.0
 21
1382.0
 31
0.0
  0
LINE
  5
55
  8
PLANNING
  6
DASHED
 10
-50.0
 20
-750.0
 30
0.0
 11
650.0
 21
-750.0
 31
0.0
  0
LINE
  5
56
  8
CENTER
 10
135.0
 20
817.5
 30
0.0
 11
-15.0
 21
817.5
 31
0.0
  0
LINE
  5
57
  8
CENTER
 10
615.0
 20
817.5
 30
0.0
 11
465.0
 21
817.5
 31
0.0
  0
LINE
  5
58
  8
DIMENSIONS
 10
0.0
 20
1152.0
 30
0.0
 11
0.0
 21
1152.0
 31
0.0
  0
LINE
  5
59
  8
DIMENSIONS
 10
300.0
 20
1225.833333
 30
0.0
 11
300.0
 21
1282.0
 31
0.0
  0
LINE
  5
5A
  8
STELTXT
 10
829.598672
 20
635.592725
 30
0.0
 11
725.186064
 21
635.592725
 31
0.0
  0
TEXT
  5
5B
  8
STELTXT
 10
859.549078
 20
635.592725
 30
0.0
 40
25.0
  1
4 x 2" BSP TAPPINGS
  0
SOLID
  5
5C
  8
STELTXT
 10
554.915004
 20
797.008447
 30
0.0
 11
560.754697
 21
802.953397
 31
0.0
 12
540.0
 22
817.5
 32
0.0
 13
540.0
 23
817.5
 33
0.0
  0
LINE
  5
5D
  8
STELTXT
 10
557.834851
 20
799.980922
 30
0.0
 11
725.186064
 21
635.592725
 31
0.0
  0
LINE
  5
5E
  8
DETAIL
 10
0.0
 20
0.0
 30
0.0
 11
600.0
 21
0.0
 31
0.0
  0
LINE
  5
5F
  8
DIMENSIONS
 10
-15.0
 20
0.0
 30
0.0
 11
-340.0
 21
0.0
 31
0.0
  0
LINE
  5
60
  8
DIMENSIONS
 10
-310.0
 20
1042.0
 30
0.0
 11
-310.0
 21
1042.0
 31
0.0
  0
LINE
  5
61
  8
DIMENSIONS
 10
-325.0
 20
25.0
 30
0.0
 11
-325.0
 21
1017.0
 31
0.0
  0
SOLID
  5
62
  8
DIMENSIONS
 10
-320.833333
 20
25.0
 30
0.0
 11
-329.166667
 21
25.0
 31
0.0
 12
-325.0
 22
0.0
 32
0.0
 13
-325.0
 23
0.0
 33
0.0
  0
SOLID
  5
63
  8
DIMENSIONS
 10
-320.833333
 20
1017.0
 30
0.0
 11
-329.166667
 21
1017.0
 31
0.0
 12
-325.0
 22
1042.0
 32
0.0
 13
-325.0
 23
1042.0
 33
0.0
  0
TEXT
  5
64
  8
DIMENSIONS
 10
-350.0
 20
486.357143
 30
0.0
 40
25.0
  1
1042
 50
90.0
  0
LINE
  5
65
  8
DIMENSIONS
 10
468.0
 20
907.0
 30
0.0
 11
840.0
 21
907.0
 31
0.0
  0
LINE
  5
66
  8
DIMENSIONS
 10
810.0
 20
1042.0
 30
0.0
 11
810.0
 21
1042.0
 31
0.0
  0
LINE
  5
67
  8
DIMENSIONS
 10
825.0
 20
932.0
 30
0.0
 11
825.0
 21
1017.0
 31
0.0
  0
SOLID
  5
68
  8
DIMENSIONS
 10
829.166667
 20
932.0
 30
0.0
 11
820.833333
 21
932.0
 31
0.0
 12
825.0
 22
907.0
 32
0.0
 13
825.0
 23
907.0
 33
0.0
  0
SOLID
  5
69
  8
DIMENSIONS
 10
829.166667
 20
1017.0
 30
0.0
 11
820.833333
 21
1017.0
 31
0.0
 12
825.0
 22
1042.0
 32
0.0
 13
825.0
 23
1042.0
 33
0.0
  0
TEXT
  5
6A
  8
DIMENSIONS
 10
800.0
 20
945.333333
 30
0.0
 40
25.0
  1
135
 50
90.0
  0
LINE
  5
6B
  8
DIMENSIONS
 10
940.0
 20
1042.0
 30
0.0
 11
940.0
 21
1042.0
 31
0.0
  0
LINE
  5
6C
  8
DIMENSIONS
 10
630.0
 20
817.5
 30
0.0
 11
940.0
 21
817.5
 31
0.0
  0
LINE
  5
6D
  8
DIMENSIONS
 10
925.0
 20
1017.0
 30
0.0
 11
925.0
 21
842.5
 31
0.0
  0
SOLID
  5
6E
  8
DIMENSIONS
 10
929.166667
 20
1017.0
 30
0.0
 11
920.833333
 21
1017.0
 31
0.0
 12
925.0
 22
1042.0
 32
0.0
 13
925.0
 23
1042.0
 33
0.0
  0
SOLID
  5
6F
  8
DIMENSIONS
 10
929.166667
 20
842.5
 30
0.0
 11
920.833333
 21
842.5
 31
0.0
 12
925.0
 22
817.5
 32
0.0
 13
925.0
 23
817.5
 33
0.0
  0
TEXT
  5
70
  8
DIMENSIONS
 10
900.0
 20
879.479665
 30
0.0
 40
25.0
  1
224.5
 50
90.0
  0
LINE
  5
71
  8
DIMENSIONS
 10
-110.0
 20
1042.0
 30
0.0
 11
-110.0
 21
1042.0
 31
0.0
  0
POLYLINE
  5
72
  8
ORIGIN
 66
     1
 10
0.0
 20
0.0
 30
0.0
  0
VERTEX
  5
1BA
  8
ORIGIN
 10
0.0
 20
0.0
 30
0.0
  0
VERTEX
  5
1BB
  8
ORIGIN
 10
-100.0
 20
-100.0
 30
0.0
  0
VERTEX
  5
1BC
  8
ORIGIN
 10
-100.0
 20
100.0
 30
0.0
  0
VERTEX
  5
1BD
  8
ORIGIN
 10
100.0
 20
-100.0
 30
0.0
  0
VERTEX
  5
1BE
  8
ORIGIN
 10
100.0
 20
100.0
 30
0.0
  0
VERTEX
  5
1BF
  8
ORIGIN
 10
0.0
 20
0.0
 30
0.0
  0
SEQEND
  5
1C0
  8
ORIGIN
  0
CIRCLE
  5
7C
  8
DETAIL
 10
300.0
 20
907.0
 30
0.0
 40
119.0
  0
LINE
  5
7D
  8
DIMENSIONS
 10
181.0
 20
957.0
 30
0.0
 11
181.0
 21
1207.166667
 31
0.0
  0
LINE
  5
7E
  8
DIMENSIONS
 10
419.0
 20
957.0
 30
0.0
 11
419.0
 21
1207.166667
 31
0.0
  0
LINE
  5
7F
  8
DIMENSIONS
 10
206.0
 20
1168.166667
 30
0.0
 11
394.0
 21
1168.166667
 31
0.0
  0
SOLID
  5
80
  8
DIMENSIONS
 10
206.0
 20
1164.0
 30
0.0
 11
206.0
 21
1172.333333
 31
0.0
 12
181.0
 22
1168.166667
 32
0.0
 13
181.0
 23
1168.166667
 33
0.0
  0
SOLID
  5
81
  8
DIMENSIONS
 10
394.0
 20
1164.0
 30
0.0
 11
394.0
 21
1172.333333
 31
0.0
 12
419.0
 22
1168.166667
 32
0.0
 13
419.0
 23
1168.166667
 33
0.0
  0
TEXT
  5
82
  8
DIMENSIONS
 10
256.547619
 20
1193.166667
 30
0.0
 40
25.0
  1
238%%C
  0
LINE
  5
83
  8
DIMENSIONS
 10
0.0
 20
1057.0
 30
0.0
 11
0.0
 21
1182.0
 31
0.0
  0
LINE
  5
84
  8
STELTXT
 10
319.760356
 20
922.314317
 30
0.0
 11
649.690346
 21
1178.010749
 31
0.0
  0
SOLID
  5
85
  8
STELTXT
 10
322.312743
 20
919.020925
 30
0.0
 11
317.20797
 21
925.60771
 31
0.0
 12
300.0
 22
907.0
 32
0.0
 13
300.0
 23
907.0
 33
0.0
  0
LINE
  5
86
  8
STELTXT
 10
649.690346
 20
1178.010749
 30
0.0
 11
689.814546
 21
1178.010749
 31
0.0
  0
TEXT
  5
87
  8
STELTXT
 10
701.510169
 20
1165.932794
 30
0.0
 40
25.0
  1
FLUE OUTLET
  0
CIRCLE
  5
88
  8
ORIGIN
 10
60.0
 20
817.5
 30
0.0
 40
50.0
  0
LINE
  5
89
  8
PLANNING
  6
DASHED
 10
-50.0
 20
1192.0
 30
0.0
 11
650.0
 21
1192.0
 31
0.0
  0
TEXT
  5
8A
  8
STELTXT
 10
-704.511229
 20
267.609184
 30
0.0
 40
25.0
  1
GAS INLET  " BSP
  0
TEXT
  5
8B
  8
STELTXT
 10
-494.805376
 20
277.467376
 30
0.0
 40
15.0
  1
3
  0
TEXT
  5
8C
  8
STELTXT
 10
-478.531978
 20
268.653225
 30
0.0
 40
15.0
  1
4
  0
TEXT
  5
8D
  8
STELTXT
 10
-488.024794
 20
271.365272
 30
0.0
 40
15.0
  1
/
  0
LINE
  5
8E
  8
STELTXT
 10
-53.157976
 20
267.157976
 30
0.0
 11
-339.899959
 21
267.157976
 31
0.0
  0
LINE
  5
8F
  8
STELTXT
 10
42.32233
 20
171.67767
 30
0.0
 11
-53.157976
 21
267.157976
 31
0.0
  0
LINE
  5
90
  8
CENTER
 10
135.0
 20
154.0
 30
0.0
 11
-15.0
 21
154.0
 31
0.0
  0
LINE
  5
91
  8
CENTER
 10
60.0
 20
230.0
 30
0.0
 11
60.0
 21
79.0
 31
0.0
  0
SOLID
  5
92
  8
STELTXT
 10
45.268609
 20
174.623948
 30
0.0
 11
39.376052
 21
168.731391
 31
0.0
 12
60.0
 22
154.0
 32
0.0
 13
60.0
 23
154.0
 33
0.0
  0
TEXT
  5
93
  8
DIMENSIONS
 10
-150.0
 20
50.216317
 30
0.0
 40
25.0
  1
154
 50
90.0
  0
LINE
  5
94
  8
DIMENSIONS
 10
-125.0
 20
129.0
 30
0.0
 11
-125.0
 21
25.0
 31
0.0
  0
SOLID
  5
95
  8
DIMENSIONS
 10
-120.833333
 20
25.0
 30
0.0
 11
-129.166667
 21
25.0
 31
0.0
 12
-125.0
 22
0.0
 32
0.0
 13
-125.0
 23
0.0
 33
0.0
  0
SOLID
  5
96
  8
DIMENSIONS
 10
-120.833333
 20
129.0
 30
0.0
 11
-129.166667
 21
129.0
 31
0.0
 12
-125.0
 22
154.0
 32
0.0
 13
-125.0
 23
154.0
 33
0.0
  0
LINE
  5
97
  8
DIMENSIONS
 10
-37.0
 20
154.0
 30
0.0
 11
-140.0
 21
154.0
 31
0.0
  0
LINE
  5
98
  8
DIMENSIONS
 10
60.0
 20
57.0
 30
0.0
 11
60.0
 21
-140.0
 31
0.0
  0
LINE
  5
99
  8
DIMENSIONS
 10
0.0
 20
-15.0
 30
0.0
 11
0.0
 21
-140.0
 31
0.0
  0
SOLID
  5
9A
  8
DIMENSIONS
 10
-25.0
 20
-129.166667
 30
0.0
 11
-25.0
 21
-120.833333
 31
0.0
 12
0.0
 22
-125.0
 32
0.0
 13
0.0
 23
-125.0
 33
0.0
  0
LINE
  5
9B
  8
DIMENSIONS
 10
60.0
 20
-125.0
 30
0.0
 11
135.0
 21
-125.0
 31
0.0
  0
SOLID
  5
9C
  8
DIMENSIONS
 10
85.0
 20
-120.833333
 30
0.0
 11
85.0
 21
-129.166667
 31
0.0
 12
60.0
 22
-125.0
 32
0.0
 13
60.0
 23
-125.0
 33
0.0
  0
LINE
  5
9D
  8
DIMENSIONS
 10
-25.0
 20
-125.0
 30
0.0
 11
-140.0
 21
-125.0
 31
0.0
  0
TEXT
  5
9E
  8
DIMENSIONS
 10
-108.952015
 20
-100.0
 30
0.0
 40
25.0
  1
60
  0
LINE
  5
9F
  8
DETAIL
 10
0.0
 20
55.0
 30
0.0
 11
600.0
 21
55.0
 31
0.0
  0
LINE
  5
A0
  8
DETAIL
 10
0.0
 20
85.0
 30
0.0
 11
600.0
 21
85.0
 31
0.0
  0
LINE
  5
A5
  8
PLANNING
  6
DASHED
 10
650.0
 20
1192.0
 30
0.0
 11
650.0
 21
-750.0
 31
0.0
  0
LINE
  5
A6
  8
PLANNING
  6
DASHED
 10
-50.0
 20
1192.0
 30
0.0
 11
-50.0
 21
-750.0
 31
0.0
  0
ENDSEC
  0
EOF
