  0
SECTION
  2
HEADER
  9
$ACADVER
  1
AC1009
  9
$INSBASE
 10
0.0
 20
0.0
 30
0.0
  9
$EXTMIN
 10
-100.073648
 20
-544.418457
 30
0.0
  9
$EXTMAX
 10
1107.073686
 20
1000.094279
 30
0.0
  9
$LIMMIN
 10
0.0
 20
0.0
  9
$LIMMAX
 10
420.0
 20
297.0
  9
$ORTHOMODE
 70
     1
  9
$REGENMODE
 70
     1
  9
$FILLMODE
 70
     1
  9
$QTEXTMODE
 70
     0
  9
$MIRRTEXT
 70
     0
  9
$DRAGMODE
 70
     2
  9
$LTSCALE
 40
25.0
  9
$OSMODE
 70
     0
  9
$ATTMODE
 70
     1
  9
$TEXTSIZE
 40
3.0
  9
$TRACEWID
 40
10.0
  9
$TEXTSTYLE
  7
STANDARD
  9
$CLAYER
  8
0
  9
$CELTYPE
  6
BYLAYER
  9
$CECOLOR
 62
   256
  9
$DIMSCALE
 40
1.0
  9
$DIMASZ
 40
25.0
  9
$DIMEXO
 40
15.0
  9
$DIMDLI
 40
10.0
  9
$DIMRND
 40
0.0
  9
$DIMDLE
 40
1.25
  9
$DIMEXE
 40
15.0
  9
$DIMTP
 40
0.0
  9
$DIMTM
 40
0.0
  9
$DIMTXT
 40
25.0
  9
$DIMCEN
 40
-3.0
  9
$DIMTSZ
 40
0.0
  9
$DIMTOL
 70
     0
  9
$DIMLIM
 70
     0
  9
$DIMTIH
 70
     0
  9
$DIMTOH
 70
     0
  9
$DIMSE1
 70
     0
  9
$DIMSE2
 70
     0
  9
$DIMTAD
 70
     0
  9
$DIMZIN
 70
     1
  9
$DIMBLK
  1

  9
$DIMASO
 70
     0
  9
$DIMSHO
 70
     0
  9
$DIMPOST
  1

  9
$DIMAPOST
  1

  9
$DIMALT
 70
     0
  9
$DIMALTD
 70
     2
  9
$DIMALTF
 40
0.039
  9
$DIMLFAC
 40
1.0
  9
$DIMTOFL
 70
     0
  9
$DIMTVP
 40
1.5
  9
$DIMTIX
 70
     0
  9
$DIMSOXD
 70
     0
  9
$DIMSAH
 70
     0
  9
$DIMBLK1
  1

  9
$DIMBLK2
  1

  9
$DIMSTYLE
  2
-
  9
$DIMCLRD
 70
     0
  9
$DIMCLRE
 70
     0
  9
$DIMCLRT
 70
     0
  9
$DIMTFAC
 40
1.0
  9
$DIMGAP
 40
0.09
  9
$LUNITS
 70
     2
  9
$LUPREC
 70
     2
  9
$SKETCHINC
 40
10.0
  9
$FILLETRAD
 40
0.0
  9
$AUNITS
 70
     0
  9
$AUPREC
 70
     4
  9
$MENU
  1
acad
  9
$ELEVATION
 40
0.0
  9
$PELEVATION
 40
0.0
  9
$THICKNESS
 40
0.0
  9
$LIMCHECK
 70
     0
  9
$BLIPMODE
 70
     0
  9
$CHAMFERA
 40
0.0
  9
$CHAMFERB
 40
0.0
  9
$SKPOLY
 70
     1
  9
$TDCREATE
 40
2448642.689169
  9
$TDUPDATE
 40
2453073.533307
  9
$TDINDWG
 40
0.224155
  9
$TDUSRTIMER
 40
0.224155
  9
$USRTIMER
 70
     1
  9
$ANGBASE
 50
0.0
  9
$ANGDIR
 70
     0
  9
$PDMODE
 70
     3
  9
$PDSIZE
 40
0.0
  9
$PLINEWID
 40
0.0
  9
$COORDS
 70
     1
  9
$SPLFRAME
 70
     0
  9
$SPLINETYPE
 70
     6
  9
$SPLINESEGS
 70
     6
  9
$ATTDIA
 70
     0
  9
$ATTREQ
 70
     1
  9
$HANDLING
 70
 22529
  9
$HANDSEED
  5
3CA
  9
$SURFTAB1
 70
    12
  9
$SURFTAB2
 70
    12
  9
$SURFTYPE
 70
     6
  9
$SURFU
 70
    12
  9
$SURFV
 70
    12
  9
$UCSNAME
  2

  9
$UCSORG
 10
0.0
 20
0.0
 30
0.0
  9
$UCSXDIR
 10
1.0
 20
0.0
 30
0.0
  9
$UCSYDIR
 10
0.0
 20
1.0
 30
0.0
  9
$PUCSNAME
  2

  9
$PUCSORG
 10
0.0
 20
0.0
 30
0.0
  9
$PUCSXDIR
 10
1.0
 20
0.0
 30
0.0
  9
$PUCSYDIR
 10
0.0
 20
1.0
 30
0.0
  9
$USERI1
 70
     0
  9
$USERI2
 70
     0
  9
$USERI3
 70
     0
  9
$USERI4
 70
     0
  9
$USERI5
 70
     0
  9
$USERR1
 40
0.0
  9
$USERR2
 40
0.0
  9
$USERR3
 40
0.0
  9
$USERR4
 40
0.0
  9
$USERR5
 40
0.0
  9
$WORLDVIEW
 70
     0
  9
$SHADEDGE
 70
     3
  9
$SHADEDIF
 70
    70
  9
$TILEMODE
 70
     1
  9
$MAXACTVP
 70
    16
  9
$PLIMCHECK
 70
     0
  9
$PEXTMIN
 10
1.000000E+020
 20
1.000000E+020
 30
1.000000E+020
  9
$PEXTMAX
 10
-1.000000E+020
 20
-1.000000E+020
 30
-1.000000E+020
  9
$PLIMMIN
 10
0.0
 20
0.0
  9
$PLIMMAX
 10
12.0
 20
9.0
  9
$UNITMODE
 70
     0
  9
$VISRETAIN
 70
     0
  9
$PLINEGEN
 70
     0
  9
$PSLTSCALE
 70
     0
  0
ENDSEC
  0
SECTION
  2
TABLES
  0
TABLE
  2
VPORT
 70
     2
  0
VPORT
  2
*ACTIVE
 70
     0
 10
0.0
 20
0.0
 11
1.0
 21
1.0
 12
503.500019
 22
227.837911
 13
0.0
 23
0.0
 14
1000.0
 24
1000.0
 15
0.0
 25
0.0
 16
0.0
 26
0.0
 36
1.0
 17
0.0
 27
0.0
 37
0.0
 40
1562.299831
 41
1.825
 42
50.0
 43
0.0
 44
0.0
 50
0.0
 51
0.0
 71
     0
 72
  2000
 73
     1
 74
     2
 75
     0
 76
     0
 77
     0
 78
     0
  0
ENDTAB
  0
TABLE
  2
LTYPE
 70
     3
  0
LTYPE
  2
CONTINUOUS
 70
     0
  3
Solid line
 72
    65
 73
     0
 40
0.0
  0
LTYPE
  2
CENTER
 70
     0
  3
____ _ ____ _ ____ _ ____ _ ____ _ ____ _ ____
 72
    65
 73
     4
 40
2.0
 49
1.25
 49
-0.25
 49
0.25
 49
-0.25
  0
LTYPE
  2
DASHED
 70
     0
  3
__ __ __ __ __ __ __ __ __ __ __ __ __ __ __
 72
    65
 73
     2
 40
0.75
 49
0.5
 49
-0.25
  0
ENDTAB
  0
TABLE
  2
LAYER
 70
    12
  0
LAYER
  2
0
 70
     0
 62
     7
  6
CONTINUOUS
  0
LAYER
  2
DETAIL
 70
     0
 62
     2
  6
CONTINUOUS
  0
LAYER
  2
DIMENSIONS
 70
     1
 62
     7
  6
CONTINUOUS
  0
LAYER
  2
CENTER
 70
     1
 62
     4
  6
CENTER
  0
LAYER
  2
ORIGIN
 70
     0
 62
     6
  6
CONTINUOUS
  0
LAYER
  2
PLANNING
 70
     1
 62
     1
  6
DASHED
  0
LAYER
  2
STELTXT
 70
     1
 62
     4
  6
CONTINUOUS
  0
LAYER
  2
FLHDL
 70
     1
 62
     3
  6
CONTINUOUS
  0
LAYER
  2
FLHDR
 70
     1
 62
     3
  6
CONTINUOUS
  0
LAYER
  2
DIMFLHDL
 70
     1
 62
     7
  6
CONTINUOUS
  0
LAYER
  2
DIMFLHDR
 70
     1
 62
     7
  6
CONTINUOUS
  0
LAYER
  2
STELATT
 70
     0
 62
     7
  6
CONTINUOUS
  0
ENDTAB
  0
TABLE
  2
STYLE
 70
     1
  0
STYLE
  2
STANDARD
 70
     0
 40
0.0
 41
1.0
 50
0.0
 71
     0
 42
3.0
  3
simplex
  4

  0
ENDTAB
  0
TABLE
  2
VIEW
 70
     0
  0
ENDTAB
  0
TABLE
  2
UCS
 70
     0
  0
ENDTAB
  0
TABLE
  2
APPID
 70
     1
  0
APPID
  2
ACAD
 70
     0
  0
ENDTAB
  0
TABLE
  2
DIMSTYLE
 70
     1
  0
DIMSTYLE
  2
-
 70
     0
  3

  4

  5

  6

  7

 40
1.0
 41
0.18
 42
0.0625
 43
0.38
 44
0.18
 45
0.0
 46
0.0
 47
0.0
 48
0.0
140
0.18
141
0.09
142
0.0
143
25.4
144
1.0
145
0.0
146
1.0
147
0.09
 71
     0
 72
     0
 73
     1
 74
     1
 75
     0
 76
     0
 77
     0
 78
     0
170
     0
171
     2
172
     0
173
     0
174
     0
175
     0
176
     0
177
     0
178
     0
  0
ENDTAB
  0
ENDSEC
  0
SECTION
  2
BLOCKS
  0
BLOCK
  8
0
  2
$MODEL_SPACE
 70
     0
 10
0.0
 20
0.0
 30
0.0
  3
$MODEL_SPACE
  1

  0
ENDBLK
  5
256
  8
0
  0
BLOCK
 67
     1
  8
0
  2
$PAPER_SPACE
 70
     0
 10
0.0
 20
0.0
 30
0.0
  3
$PAPER_SPACE
  1

  0
ENDBLK
  5
254
 67
     1
  8
0
  0
BLOCK
  8
0
  2
GRILLE
 70
     0
 10
0.0
 20
0.0
 30
0.0
  3
GRILLE
  1

  0
ARC
  5
32
  8
DETAIL
 10
74.5
 20
29.7
 30
0.0
 40
3.0
 50
180.0
 51
0.0
  0
ARC
  5
33
  8
DETAIL
 10
74.5
 20
73.7
 30
0.0
 40
3.0
 50
0.0
 51
180.0
  0
LINE
  5
34
  8
DETAIL
 10
77.5
 20
29.7
 30
0.0
 11
77.5
 21
73.7
 31
0.0
  0
LINE
  5
35
  8
DETAIL
 10
71.5
 20
29.7
 30
0.0
 11
71.5
 21
73.7
 31
0.0
  0
ENDBLK
  5
37
  8
0
  0
ENDSEC
  0
SECTION
  2
ENTITIES
  0
LINE
  5
1E
  8
DIMENSIONS
 10
1462.0
 20
705.0
 30
0.0
 11
1905.851071
 21
705.0
 31
0.0
  0
TEXT
  5
20
  8
STELTXT
 10
1509.909939
 20
1099.851092
 30
0.0
 40
25.0
  1
1 x 2" SIDE FACING FLOW FLANGE
  0
LINE
  5
22
  8
STELTXT
 10
1201.923958
 20
261.923958
 30
0.0
 11
1956.335249
 21
261.923958
 31
0.0
  0
LINE
  5
23
  8
DIMENSIONS
 10
977.0
 20
0.0
 30
0.0
 11
1905.851071
 21
0.0
 31
0.0
  0
LINE
  5
24
  8
DIMENSIONS
 10
962.0
 20
1284.184076
 30
0.0
 11
962.0
 21
989.356336
 31
0.0
  0
LINE
  5
25
  8
DIMENSIONS
 10
1107.0
 20
1015.0
 30
0.0
 11
1107.0
 21
1390.657146
 31
0.0
  0
LINE
  5
26
  8
DIMENSIONS
 10
146.0
 20
1287.163913
 30
0.0
 11
146.0
 21
989.356336
 31
0.0
  0
LINE
  5
27
  8
DIMENSIONS
 10
0.0
 20
1015.0
 30
0.0
 11
0.0
 21
1390.657146
 31
0.0
  0
TEXT
  5
28
  8
DIMENSIONS
 10
244.357143
 20
1150.0
 30
0.0
 40
25.0
  1
553
  0
LINE
  5
29
  8
DIMENSIONS
 10
528.0
 20
1125.0
 30
0.0
 11
25.0
 21
1125.0
 31
0.0
  0
LINE
  5
2A
  8
DETAIL
 10
1107.0
 20
727.0
 30
0.0
 11
0.0
 21
727.0
 31
0.0
  0
LINE
  5
2B
  8
DETAIL
 10
1107.0
 20
762.0
 30
0.0
 11
0.0
 21
762.0
 31
0.0
  0
LINE
  5
2D
  8
DETAIL
  6
DASHED
 10
961.0
 20
980.0
 30
0.0
 11
146.0
 21
980.0
 31
0.0
  0
LINE
  5
2F
  8
DETAIL
 10
1107.0
 20
1000.0
 30
0.0
 11
0.0
 21
1000.0
 31
0.0
  0
INSERT
  5
30
  8
DETAIL
  2
GRILLE
 10
220.5
 20
0.0
 30
0.0
  0
LINE
  5
38
  8
DETAIL
 10
0.0
 20
107.408846
 30
0.0
 11
1107.0
 21
107.408846
 31
0.0
  0
LINE
  5
39
  8
DETAIL
 10
0.0
 20
10.0
 30
0.0
 11
1107.0
 21
10.0
 31
0.0
  0
LINE
  5
3A
  8
DETAIL
 10
146.0
 20
0.0
 30
0.0
 11
962.0
 21
0.0
 31
0.0
  0
LINE
  5
3B
  8
DIMENSIONS
 10
171.0
 20
-125.0
 30
0.0
 11
937.0
 21
-125.0
 31
0.0
  0
LINE
  5
3C
  8
DIMENSIONS
 10
1082.0
 20
-225.0
 30
0.0
 11
25.0
 21
-225.0
 31
0.0
  0
LINE
  5
3D
  8
STELTXT
 10
-102.781254
 20
1235.397763
 30
0.0
 11
330.801425
 21
1235.397763
 31
0.0
  0
LINE
  5
3E
  8
PLANNING
 10
1207.0
 20
1000.0
 30
0.0
 11
-100.0
 21
1000.0
 31
0.0
  0
LINE
  5
40
  8
PLANNING
 10
1207.0
 20
0.0
 30
0.0
 11
-100.0
 21
0.0
 31
0.0
  0
LINE
  5
41
  8
CENTER
 10
146.0
 20
423.0
 30
0.0
 11
146.0
 21
273.0
 31
0.0
  0
LINE
  5
44
  8
DETAIL
 10
0.0
 20
1000.0
 30
0.0
 11
0.0
 21
10.0
 31
0.0
  0
LINE
  5
45
  8
DIMENSIONS
 10
-470.0
 20
975.0
 30
0.0
 11
-470.0
 21
25.0
 31
0.0
  0
LINE
  5
46
  8
PLANNING
 10
-100.0
 20
1000.0
 30
0.0
 11
-100.0
 21
0.0
 31
0.0
  0
LINE
  5
47
  8
DIMENSIONS
 10
131.0
 20
0.0
 30
0.0
 11
-485.0
 21
0.0
 31
0.0
  0
SOLID
  5
48
  8
DIMENSIONS
 10
-465.833333
 20
25.0
 30
0.0
 11
-474.166667
 21
25.0
 31
0.0
 12
-470.0
 22
0.0
 32
0.0
 13
-470.0
 23
0.0
 33
0.0
  0
LINE
  5
49
  8
DIMENSIONS
 10
-455.0
 20
0.0
 30
0.0
 11
-455.0
 21
0.0
 31
0.0
  0
LINE
  5
4A
  8
DIMENSIONS
 10
0.0
 20
5.0
 30
0.0
 11
0.0
 21
-240.0
 31
0.0
  0
LINE
  5
4B
  8
DIMENSIONS
 10
0.0
 20
-240.0
 30
0.0
 11
0.0
 21
-240.0
 31
0.0
  0
SOLID
  5
4C
  8
DIMENSIONS
 10
25.0
 20
-229.166667
 30
0.0
 11
25.0
 21
-220.833333
 31
0.0
 12
0.0
 22
-225.0
 32
0.0
 13
0.0
 23
-225.0
 33
0.0
  0
POLYLINE
  5
4D
  8
ORIGIN
 66
     1
 10
0.0
 20
0.0
 30
0.0
  0
VERTEX
  5
3C1
  8
ORIGIN
 10
0.0
 20
0.0
 30
0.0
  0
VERTEX
  5
3C2
  8
ORIGIN
 10
-100.0
 20
-100.0
 30
0.0
  0
VERTEX
  5
3C3
  8
ORIGIN
 10
-100.0
 20
100.0
 30
0.0
  0
VERTEX
  5
3C4
  8
ORIGIN
 10
100.0
 20
-100.0
 30
0.0
  0
VERTEX
  5
3C5
  8
ORIGIN
 10
100.0
 20
100.0
 30
0.0
  0
VERTEX
  5
3C6
  8
ORIGIN
 10
0.0
 20
0.0
 30
0.0
  0
SEQEND
  5
3C7
  8
ORIGIN
  0
LINE
  5
56
  8
DIMENSIONS
 10
146.0
 20
260.0
 30
0.0
 11
146.0
 21
-140.0
 31
0.0
  0
SOLID
  5
58
  8
DIMENSIONS
 10
171.0
 20
-129.166667
 30
0.0
 11
171.0
 21
-120.833333
 31
0.0
 12
146.0
 22
-125.0
 32
0.0
 13
146.0
 23
-125.0
 33
0.0
  0
INSERT
  5
59
  8
DETAIL
  2
GRILLE
 10
132.5
 20
0.0
 30
0.0
  0
INSERT
  5
5A
  8
DETAIL
  2
GRILLE
 10
121.5
 20
0.0
 30
0.0
  0
INSERT
  5
5B
  8
DETAIL
  2
GRILLE
 10
99.5
 20
0.0
 30
0.0
  0
INSERT
  5
5C
  8
DETAIL
  2
GRILLE
 10
110.5
 20
0.0
 30
0.0
  0
LINE
  5
5D
  8
DETAIL
 10
146.0
 20
10.0
 30
0.0
 11
146.0
 21
0.0
 31
0.0
  0
INSERT
  5
5E
  8
DETAIL
  2
GRILLE
 10
198.5
 20
0.0
 30
0.0
  0
INSERT
  5
5F
  8
DETAIL
  2
GRILLE
 10
187.5
 20
0.0
 30
0.0
  0
INSERT
  5
60
  8
DETAIL
  2
GRILLE
 10
176.5
 20
0.0
 30
0.0
  0
INSERT
  5
61
  8
DETAIL
  2
GRILLE
 10
165.5
 20
0.0
 30
0.0
  0
INSERT
  5
62
  8
DETAIL
  2
GRILLE
 10
154.5
 20
0.0
 30
0.0
  0
INSERT
  5
63
  8
DETAIL
  2
GRILLE
 10
143.5
 20
0.0
 30
0.0
  0
INSERT
  5
64
  8
DETAIL
  2
GRILLE
 10
209.5
 20
0.0
 30
0.0
  0
TEXT
  5
65
  8
STELTXT
 10
-552.322277
 20
1223.568279
 30
0.0
 40
25.0
  1
FLUE OUTLET %%C288mm
  0
LINE
  5
66
  8
DIMENSIONS
 10
-15.0
 20
1000.0
 30
0.0
 11
-485.0
 21
1000.0
 31
0.0
  0
TEXT
  5
67
  8
DIMFLHDL
 10
-395.0
 20
675.238095
 30
0.0
 40
25.0
  1
170
 50
90.0
  0
TEXT
  5
69
  8
DIMENSIONS
 10
-495.0
 20
458.333333
 30
0.0
 40
25.0
  1
1000
 50
90.0
  0
SOLID
  5
6A
  8
DIMENSIONS
 10
-465.833333
 20
975.0
 30
0.0
 11
-474.166667
 21
975.0
 31
0.0
 12
-470.0
 22
1000.0
 32
0.0
 13
-470.0
 23
1000.0
 33
0.0
  0
SOLID
  5
6E
  8
DIMFLHDL
 10
-365.833333
 20
765.0
 30
0.0
 11
-374.166667
 21
765.0
 31
0.0
 12
-370.0
 22
790.0
 32
0.0
 13
-370.0
 23
790.0
 33
0.0
  0
LINE
  5
72
  8
DIMFLHDL
 10
-370.0
 20
765.0
 30
0.0
 11
-370.0
 21
645.0
 31
0.0
  0
LINE
  5
73
  8
DIMFLHDL
 10
-260.0
 20
620.0
 30
0.0
 11
-385.0
 21
620.0
 31
0.0
  0
SOLID
  5
74
  8
DIMFLHDL
 10
-365.833333
 20
645.0
 30
0.0
 11
-374.166667
 21
645.0
 31
0.0
 12
-370.0
 22
620.0
 32
0.0
 13
-370.0
 23
620.0
 33
0.0
  0
LINE
  5
79
  8
CENTER
 10
221.0
 20
348.0
 30
0.0
 11
71.0
 21
348.0
 31
0.0
  0
LINE
  5
7A
  8
CENTER
 10
221.0
 20
705.0
 30
0.0
 11
71.0
 21
705.0
 31
0.0
  0
LINE
  5
84
  8
CENTER
 10
146.0
 20
780.0
 30
0.0
 11
146.0
 21
630.0
 31
0.0
  0
LINE
  5
85
  8
DIMFLHDL
 10
-25.0
 20
1125.0
 30
0.0
 11
-220.0
 21
1125.0
 31
0.0
  0
LINE
  5
86
  8
DIMFLHDL
 10
-245.0
 20
807.0
 30
0.0
 11
-245.0
 21
1140.0
 31
0.0
  0
LINE
  5
88
  8
DIMFLHDL
 10
-260.0
 20
790.0
 30
0.0
 11
-385.0
 21
790.0
 31
0.0
  0
SOLID
  5
89
  8
DIMFLHDL
 10
-220.0
 20
1120.833333
 30
0.0
 11
-220.0
 21
1129.166667
 31
0.0
 12
-245.0
 22
1125.0
 32
0.0
 13
-245.0
 23
1125.0
 33
0.0
  0
TEXT
  5
8A
  8
DIMFLHDL
 10
-154.642857
 20
1150.0
 30
0.0
 40
25.0
  1
245
  0
LINE
  5
8B
  8
DIMFLHDL
 10
0.0
 20
1015.0
 30
0.0
 11
0.0
 21
1140.0
 31
0.0
  0
LINE
  5
8C
  8
DETAIL
  6
DASHED
 10
146.0
 20
980.0
 30
0.0
 11
146.0
 21
965.0
 31
0.0
  0
SOLID
  5
8D
  8
DIMFLHDL
 10
-25.0
 20
1120.833333
 30
0.0
 11
-25.0
 21
1129.166667
 31
0.0
 12
0.0
 22
1125.0
 32
0.0
 13
0.0
 23
1125.0
 33
0.0
  0
SOLID
  5
8E
  8
DIMENSIONS
 10
25.0
 20
1120.833333
 30
0.0
 11
25.0
 21
1129.166667
 31
0.0
 12
0.0
 22
1125.0
 32
0.0
 13
0.0
 23
1125.0
 33
0.0
  0
LINE
  5
8F
  8
DIMENSIONS
 10
1663.975111
 20
25.0
 30
0.0
 11
1663.975111
 21
325.0
 31
0.0
  0
LINE
  5
90
  8
CENTER
 10
962.0
 20
423.0
 30
0.0
 11
962.0
 21
273.0
 31
0.0
  0
LINE
  5
91
  8
DETAIL
 10
1107.0
 20
10.0
 30
0.0
 11
1107.0
 21
1000.0
 31
0.0
  0
LINE
  5
92
  8
PLANNING
 10
1207.0
 20
0.0
 30
0.0
 11
1207.0
 21
1000.0
 31
0.0
  0
TEXT
  5
93
  8
DIMENSIONS
 10
514.214286
 20
-200.0
 30
0.0
 40
25.0
  1
1107
  0
INSERT
  5
94
  8
DETAIL
  2
GRILLE
 10
396.5
 20
0.0
 30
0.0
  0
INSERT
  5
95
  8
DETAIL
  2
GRILLE
 10
308.5
 20
0.0
 30
0.0
  0
INSERT
  5
96
  8
DETAIL
  2
GRILLE
 10
297.5
 20
0.0
 30
0.0
  0
INSERT
  5
97
  8
DETAIL
  2
GRILLE
 10
286.5
 20
0.0
 30
0.0
  0
INSERT
  5
98
  8
DETAIL
  2
GRILLE
 10
275.5
 20
0.0
 30
0.0
  0
INSERT
  5
99
  8
DETAIL
  2
GRILLE
 10
264.5
 20
0.0
 30
0.0
  0
INSERT
  5
9A
  8
DETAIL
  2
GRILLE
 10
253.5
 20
0.0
 30
0.0
  0
INSERT
  5
9B
  8
DETAIL
  2
GRILLE
 10
242.5
 20
0.0
 30
0.0
  0
INSERT
  5
9C
  8
DETAIL
  2
GRILLE
 10
231.5
 20
0.0
 30
0.0
  0
INSERT
  5
9D
  8
DETAIL
  2
GRILLE
 10
385.5
 20
0.0
 30
0.0
  0
INSERT
  5
9E
  8
DETAIL
  2
GRILLE
 10
374.5
 20
0.0
 30
0.0
  0
INSERT
  5
9F
  8
DETAIL
  2
GRILLE
 10
363.5
 20
0.0
 30
0.0
  0
INSERT
  5
A0
  8
DETAIL
  2
GRILLE
 10
352.5
 20
0.0
 30
0.0
  0
INSERT
  5
A1
  8
DETAIL
  2
GRILLE
 10
341.5
 20
0.0
 30
0.0
  0
INSERT
  5
A2
  8
DETAIL
  2
GRILLE
 10
330.5
 20
0.0
 30
0.0
  0
INSERT
  5
A3
  8
DETAIL
  2
GRILLE
 10
319.5
 20
0.0
 30
0.0
  0
TEXT
  5
A4
  8
DIMENSIONS
 10
524.833333
 20
-100.0
 30
0.0
 40
25.0
  1
816
  0
INSERT
  5
A5
  8
DETAIL
  2
GRILLE
 10
484.5
 20
0.0
 30
0.0
  0
INSERT
  5
A6
  8
DETAIL
  2
GRILLE
 10
473.5
 20
0.0
 30
0.0
  0
INSERT
  5
A7
  8
DETAIL
  2
GRILLE
 10
462.5
 20
0.0
 30
0.0
  0
INSERT
  5
A8
  8
DETAIL
  2
GRILLE
 10
451.5
 20
0.0
 30
0.0
  0
INSERT
  5
A9
  8
DETAIL
  2
GRILLE
 10
440.5
 20
0.0
 30
0.0
  0
INSERT
  5
AA
  8
DETAIL
  2
GRILLE
 10
429.5
 20
0.0
 30
0.0
  0
INSERT
  5
AB
  8
DETAIL
  2
GRILLE
 10
418.5
 20
0.0
 30
0.0
  0
INSERT
  5
AC
  8
DETAIL
  2
GRILLE
 10
407.5
 20
0.0
 30
0.0
  0
INSERT
  5
AD
  8
DETAIL
  2
GRILLE
 10
572.5
 20
0.0
 30
0.0
  0
INSERT
  5
AE
  8
DETAIL
  2
GRILLE
 10
561.5
 20
0.0
 30
0.0
  0
INSERT
  5
AF
  8
DETAIL
  2
GRILLE
 10
550.5
 20
0.0
 30
0.0
  0
INSERT
  5
B0
  8
DETAIL
  2
GRILLE
 10
539.5
 20
0.0
 30
0.0
  0
INSERT
  5
B1
  8
DETAIL
  2
GRILLE
 10
517.5
 20
0.0
 30
0.0
  0
INSERT
  5
B2
  8
DETAIL
  2
GRILLE
 10
506.5
 20
0.0
 30
0.0
  0
INSERT
  5
B3
  8
DETAIL
  2
GRILLE
 10
528.5
 20
0.0
 30
0.0
  0
INSERT
  5
B4
  8
DETAIL
  2
GRILLE
 10
495.5
 20
0.0
 30
0.0
  0
LINE
  5
B5
  8
DIMENSIONS
 10
962.0
 20
260.0
 30
0.0
 11
962.0
 21
-140.0
 31
0.0
  0
INSERT
  5
B6
  8
DETAIL
  2
GRILLE
 10
660.5
 20
0.0
 30
0.0
  0
INSERT
  5
B7
  8
DETAIL
  2
GRILLE
 10
649.5
 20
0.0
 30
0.0
  0
INSERT
  5
B8
  8
DETAIL
  2
GRILLE
 10
638.5
 20
0.0
 30
0.0
  0
INSERT
  5
B9
  8
DETAIL
  2
GRILLE
 10
627.5
 20
0.0
 30
0.0
  0
INSERT
  5
BA
  8
DETAIL
  2
GRILLE
 10
616.5
 20
0.0
 30
0.0
  0
INSERT
  5
BB
  8
DETAIL
  2
GRILLE
 10
605.5
 20
0.0
 30
0.0
  0
INSERT
  5
BC
  8
DETAIL
  2
GRILLE
 10
594.5
 20
0.0
 30
0.0
  0
INSERT
  5
BD
  8
DETAIL
  2
GRILLE
 10
583.5
 20
0.0
 30
0.0
  0
INSERT
  5
BE
  8
DETAIL
  2
GRILLE
 10
748.5
 20
0.0
 30
0.0
  0
INSERT
  5
BF
  8
DETAIL
  2
GRILLE
 10
737.5
 20
0.0
 30
0.0
  0
INSERT
  5
C0
  8
DETAIL
  2
GRILLE
 10
726.5
 20
0.0
 30
0.0
  0
INSERT
  5
C1
  8
DETAIL
  2
GRILLE
 10
715.5
 20
0.0
 30
0.0
  0
INSERT
  5
C2
  8
DETAIL
  2
GRILLE
 10
704.5
 20
0.0
 30
0.0
  0
INSERT
  5
C3
  8
DETAIL
  2
GRILLE
 10
693.5
 20
0.0
 30
0.0
  0
INSERT
  5
C4
  8
DETAIL
  2
GRILLE
 10
682.5
 20
0.0
 30
0.0
  0
INSERT
  5
C5
  8
DETAIL
  2
GRILLE
 10
671.5
 20
0.0
 30
0.0
  0
SOLID
  5
C6
  8
DIMENSIONS
 10
937.0
 20
-129.166667
 30
0.0
 11
937.0
 21
-120.833333
 31
0.0
 12
962.0
 22
-125.0
 32
0.0
 13
962.0
 23
-125.0
 33
0.0
  0
INSERT
  5
C7
  8
DETAIL
  2
GRILLE
 10
836.5
 20
0.0
 30
0.0
  0
INSERT
  5
C8
  8
DETAIL
  2
GRILLE
 10
825.5
 20
0.0
 30
0.0
  0
INSERT
  5
C9
  8
DETAIL
  2
GRILLE
 10
814.5
 20
0.0
 30
0.0
  0
INSERT
  5
CA
  8
DETAIL
  2
GRILLE
 10
803.5
 20
0.0
 30
0.0
  0
INSERT
  5
CB
  8
DETAIL
  2
GRILLE
 10
792.5
 20
0.0
 30
0.0
  0
INSERT
  5
CC
  8
DETAIL
  2
GRILLE
 10
770.5
 20
0.0
 30
0.0
  0
INSERT
  5
CD
  8
DETAIL
  2
GRILLE
 10
759.5
 20
0.0
 30
0.0
  0
INSERT
  5
CE
  8
DETAIL
  2
GRILLE
 10
781.5
 20
0.0
 30
0.0
  0
INSERT
  5
CF
  8
DETAIL
  2
GRILLE
 10
858.5
 20
0.0
 30
0.0
  0
INSERT
  5
D0
  8
DETAIL
  2
GRILLE
 10
847.5
 20
0.0
 30
0.0
  0
LINE
  5
D1
  8
DETAIL
 10
962.0
 20
10.0
 30
0.0
 11
962.0
 21
0.0
 31
0.0
  0
LINE
  5
D2
  8
DIMENSIONS
 10
1107.0
 20
5.0
 30
0.0
 11
1107.0
 21
-240.0
 31
0.0
  0
SOLID
  5
D3
  8
DIMENSIONS
 10
1082.0
 20
-229.166667
 30
0.0
 11
1082.0
 21
-220.833333
 31
0.0
 12
1107.0
 22
-225.0
 32
0.0
 13
1107.0
 23
-225.0
 33
0.0
  0
TEXT
  5
D4
  8
DIMENSIONS
 10
1382.0
 20
27.261905
 30
0.0
 40
25.0
  1
95
 50
90.0
  0
SOLID
  5
D5
  8
DIMENSIONS
 10
1327.833333
 20
70.0
 30
0.0
 11
1336.166667
 21
70.0
 31
0.0
 12
1332.0
 22
95.0
 32
0.0
 13
1332.0
 23
95.0
 33
0.0
  0
LINE
  5
D6
  8
CENTER
 10
1035.0
 20
170.0
 30
0.0
 11
1035.0
 21
20.0
 31
0.0
  0
TEXT
  5
D7
  8
DIMENSIONS
 10
1053.658959
 20
-110.327862
 30
0.0
 40
25.0
  1
72
  0
LINE
  5
D8
  8
DIMENSIONS
 10
1035.0
 20
5.0
 30
0.0
 11
1035.0
 21
-140.0
 31
0.0
  0
SOLID
  5
DA
  8
DIMENSIONS
 10
1082.0
 20
-129.166667
 30
0.0
 11
1082.0
 21
-120.833333
 31
0.0
 12
1107.0
 22
-125.0
 32
0.0
 13
1107.0
 23
-125.0
 33
0.0
  0
LINE
  5
DB
  8
DIMENSIONS
 10
1050.482978
 20
-125.0
 30
0.0
 11
1100.479169
 21
-125.0
 31
0.0
  0
SOLID
  5
DC
  8
DIMENSIONS
 10
1060.0
 20
-129.166667
 30
0.0
 11
1060.0
 21
-120.833333
 31
0.0
 12
1035.0
 22
-125.0
 32
0.0
 13
1035.0
 23
-125.0
 33
0.0
  0
LINE
  5
DD
  8
DIMENSIONS
 10
1332.0
 20
70.0
 30
0.0
 11
1332.0
 21
25.0
 31
0.0
  0
SOLID
  5
DE
  8
DIMENSIONS
 10
1327.833333
 20
25.0
 30
0.0
 11
1336.166667
 21
25.0
 31
0.0
 12
1332.0
 22
0.0
 32
0.0
 13
1332.0
 23
0.0
 33
0.0
  0
LINE
  5
DF
  8
DIMENSIONS
 10
1120.030508
 20
95.0
 30
0.0
 11
1347.0
 21
95.0
 31
0.0
  0
LINE
  5
E0
  8
STELTXT
 10
1052.67767
 20
112.67767
 30
0.0
 11
1201.923958
 21
261.923958
 31
0.0
  0
SOLID
  5
E1
  8
STELTXT
 10
1049.731391
 20
115.623948
 30
0.0
 11
1055.623948
 21
109.731391
 31
0.0
 12
1035.0
 22
95.0
 32
0.0
 13
1035.0
 23
95.0
 33
0.0
  0
LINE
  5
E2
  8
CENTER
 10
1110.0
 20
95.0
 30
0.0
 11
960.0
 21
95.0
 31
0.0
  0
SOLID
  5
E3
  8
DIMENSIONS
 10
1668.141778
 20
25.0
 30
0.0
 11
1659.808444
 21
25.0
 31
0.0
 12
1663.975111
 22
0.0
 32
0.0
 13
1663.975111
 23
0.0
 33
0.0
  0
TEXT
  5
E4
  8
DIMENSIONS
 10
1638.975111
 20
142.857143
 30
0.0
 40
25.0
  1
348
 50
90.0
  0
LINE
  5
EE
  8
CENTER
 10
1037.0
 20
705.0
 30
0.0
 11
887.0
 21
705.0
 31
0.0
  0
LINE
  5
EF
  8
CENTER
 10
1037.0
 20
348.0
 30
0.0
 11
887.0
 21
348.0
 31
0.0
  0
LINE
  5
F0
  8
STELTXT
 10
1359.810602
 20
730.619618
 30
0.0
 11
1427.270641
 21
1112.774714
 31
0.0
  0
LINE
  5
F1
  8
CENTER
 10
962.0
 20
780.0
 30
0.0
 11
962.0
 21
630.0
 31
0.0
  0
SOLID
  5
F2
  8
STELTXT
 10
1363.913828
 20
729.895295
 30
0.0
 11
1355.707375
 21
731.343941
 31
0.0
 12
1355.464662
 22
706.00026
 32
0.0
 13
1355.464662
 23
706.00026
 33
0.0
  0
LINE
  5
F3
  8
CENTER
 10
554.0
 20
1075.0
 30
0.0
 11
554.0
 21
925.0
 31
0.0
  0
LINE
  5
F4
  8
STELTXT
 10
536.77834
 20
1018.649987
 30
0.0
 11
330.801425
 21
1235.397763
 31
0.0
  0
SOLID
  5
F5
  8
STELTXT
 10
539.798708
 20
1021.520264
 30
0.0
 11
533.757972
 21
1015.77971
 31
0.0
 12
554.0
 22
1000.527779
 32
0.0
 13
554.0
 23
1000.527779
 33
0.0
  0
SOLID
  5
F6
  8
DIMENSIONS
 10
528.0
 20
1120.833333
 30
0.0
 11
528.0
 21
1129.166667
 31
0.0
 12
553.0
 22
1125.0
 32
0.0
 13
553.0
 23
1125.0
 33
0.0
  0
LINE
  5
F7
  8
DIMENSIONS
 10
554.0
 20
1090.0
 30
0.0
 11
554.0
 21
1140.0
 31
0.0
  0
LINE
  5
100
  8
DETAIL
  6
DASHED
 10
961.0
 20
980.0
 30
0.0
 11
961.0
 21
965.0
 31
0.0
  0
SOLID
  5
110
  8
DIMFLHDR
 10
1472.833333
 20
767.0
 30
0.0
 11
1481.166667
 21
767.0
 31
0.0
 12
1477.0
 22
792.0
 32
0.0
 13
1477.0
 23
792.0
 33
0.0
  0
LINE
  5
115
  8
DIMENSIONS
 10
1052.0
 20
705.0
 30
0.0
 11
1417.0
 21
705.0
 31
0.0
  0
LINE
  5
116
  8
DIMENSIONS
 10
1052.0
 20
348.0
 30
0.0
 11
1676.693929
 21
348.0
 31
0.0
  0
SOLID
  5
127
  8
DIMENSIONS
 10
1668.141778
 20
323.0
 30
0.0
 11
1659.808444
 21
323.0
 31
0.0
 12
1663.975111
 22
348.0
 32
0.0
 13
1663.975111
 23
348.0
 33
0.0
  0
LINE
  5
128
  8
DIMFLHDR
 10
1477.0
 20
767.0
 30
0.0
 11
1477.0
 21
647.0
 31
0.0
  0
LINE
  5
129
  8
DIMFLHDR
 10
1367.0
 20
622.0
 30
0.0
 11
1492.0
 21
622.0
 31
0.0
  0
SOLID
  5
12A
  8
DIMFLHDR
 10
1472.833333
 20
647.0
 30
0.0
 11
1481.166667
 21
647.0
 31
0.0
 12
1477.0
 22
622.0
 32
0.0
 13
1477.0
 23
622.0
 33
0.0
  0
TEXT
  5
12B
  8
DIMFLHDR
 10
1452.0
 20
677.238095
 30
0.0
 40
25.0
  1
170
 50
90.0
  0
LINE
  5
12C
  8
STELTXT
 10
1479.95954
 20
1112.774714
 30
0.0
 11
1427.270641
 21
1112.774714
 31
0.0
  0
LINE
  5
12D
  8
DIMFLHDR
 10
1352.0
 20
807.0
 30
0.0
 11
1352.0
 21
1140.0
 31
0.0
  0
LINE
  5
12E
  8
DIMFLHDR
 10
1107.0
 20
1015.0
 30
0.0
 11
1107.0
 21
1140.0
 31
0.0
  0
LINE
  5
13A
  8
DIMFLHDR
 10
1132.0
 20
1125.0
 30
0.0
 11
1327.0
 21
1125.0
 31
0.0
  0
SOLID
  5
13B
  8
DIMFLHDR
 10
1132.0
 20
1120.833333
 30
0.0
 11
1132.0
 21
1129.166667
 31
0.0
 12
1107.0
 22
1125.0
 32
0.0
 13
1107.0
 23
1125.0
 33
0.0
  0
SOLID
  5
13C
  8
DIMFLHDR
 10
1327.0
 20
1120.833333
 30
0.0
 11
1327.0
 21
1129.166667
 31
0.0
 12
1352.0
 22
1125.0
 32
0.0
 13
1352.0
 23
1125.0
 33
0.0
  0
TEXT
  5
13D
  8
DIMFLHDR
 10
1197.357143
 20
1150.0
 30
0.0
 40
25.0
  1
245
  0
LINE
  5
13E
  8
DIMFLHDR
 10
1367.0
 20
792.0
 30
0.0
 11
1492.0
 21
792.0
 31
0.0
  0
LINE
  5
13F
  8
DIMENSIONS
 10
171.0
 20
1272.541225
 30
0.0
 11
937.0
 21
1272.541225
 31
0.0
  0
LINE
  5
140
  8
DIMENSIONS
 10
25.0
 20
1375.657146
 30
0.0
 11
1082.0
 21
1375.657146
 31
0.0
  0
SOLID
  5
141
  8
DIMENSIONS
 10
25.0
 20
1371.490479
 30
0.0
 11
25.0
 21
1379.823812
 31
0.0
 12
0.0
 22
1375.657146
 32
0.0
 13
0.0
 23
1375.657146
 33
0.0
  0
SOLID
  5
142
  8
DIMENSIONS
 10
171.0
 20
1268.374558
 30
0.0
 11
171.0
 21
1276.707892
 31
0.0
 12
146.0
 22
1272.541225
 32
0.0
 13
146.0
 23
1272.541225
 33
0.0
  0
TEXT
  5
143
  8
DIMENSIONS
 10
524.833333
 20
1297.541225
 30
0.0
 40
25.0
  1
816
  0
TEXT
  5
144
  8
DIMENSIONS
 10
514.214286
 20
1400.657146
 30
0.0
 40
25.0
  1
1107
  0
SOLID
  5
145
  8
DIMENSIONS
 10
937.0
 20
1268.374558
 30
0.0
 11
937.0
 21
1276.707892
 31
0.0
 12
962.0
 22
1272.541225
 32
0.0
 13
962.0
 23
1272.541225
 33
0.0
  0
SOLID
  5
146
  8
DIMENSIONS
 10
1082.0
 20
1371.490479
 30
0.0
 11
1082.0
 21
1379.823812
 31
0.0
 12
1107.0
 22
1375.657146
 32
0.0
 13
1107.0
 23
1375.657146
 33
0.0
  0
LINE
  5
147
  8
DIMENSIONS
 10
1107.0
 20
1360.657146
 30
0.0
 11
1107.0
 21
1360.657146
 31
0.0
  0
TEXT
  5
148
  8
DIMENSIONS
 10
1865.851071
 20
321.357143
 30
0.0
 40
25.0
  1
705
 50
90.0
  0
LINE
  5
149
  8
DIMENSIONS
 10
1890.851071
 20
25.0
 30
0.0
 11
1890.851071
 21
682.0
 31
0.0
  0
TEXT
  5
14A
  8
STELTXT
 10
1963.776706
 20
250.666432
 30
0.0
 40
25.0
  1
GAS INLET 1 " BSP
  0
SOLID
  5
14B
  8
DIMENSIONS
 10
1895.017738
 20
25.0
 30
0.0
 11
1886.684405
 21
25.0
 31
0.0
 12
1890.851071
 22
0.0
 32
0.0
 13
1890.851071
 23
0.0
 33
0.0
  0
LINE
  5
14C
  8
DIMENSIONS
 10
1905.851071
 20
0.0
 30
0.0
 11
1905.851071
 21
0.0
 31
0.0
  0
TEXT
  5
14D
  8
STELTXT
 10
2208.961673
 20
254.422519
 30
0.0
 40
15.0
  1
/
  0
TEXT
  5
14E
  8
STELTXT
 10
2218.454488
 20
251.710473
 30
0.0
 40
15.0
  1
2
  0
TEXT
  5
14F
  8
STELTXT
 10
2202.18109
 20
260.524623
 30
0.0
 40
15.0
  1
1
  0
SOLID
  5
150
  8
DIMENSIONS
 10
1895.017738
 20
680.0
 30
0.0
 11
1886.684405
 21
680.0
 31
0.0
 12
1890.851071
 22
705.0
 32
0.0
 13
1890.851071
 23
705.0
 33
0.0
  0
LINE
  5
1B1
  8
DETAIL
 10
1070.40951
 20
890.672281
 30
0.0
 11
849.29701
 21
890.672281
 31
0.0
  0
LINE
  5
1B2
  8
DETAIL
 10
849.29701
 20
989.947281
 30
0.0
 11
1070.40951
 21
989.947281
 31
0.0
  0
LINE
  5
1B7
  8
DETAIL
 10
849.29701
 20
989.947281
 30
0.0
 11
849.29701
 21
890.672281
 31
0.0
  0
LINE
  5
1CB
  8
DETAIL
 10
1070.40951
 20
989.947281
 30
0.0
 11
1070.40951
 21
890.672281
 31
0.0
  0
LINE
  5
1D6
  8
DETAIL
 10
553.5
 20
1000.0
 30
0.0
 11
553.5
 21
762.0
 31
0.0
  0
LINE
  5
1DA
  8
DETAIL
  6
DASHED
 10
410.0
 20
1000.0
 30
0.0
 11
410.0
 21
980.0
 31
0.0
  0
LINE
  5
1DB
  8
DETAIL
  6
DASHED
 10
698.0
 20
1000.0
 30
0.0
 11
698.0
 21
980.0
 31
0.0
  0
LINE
  5
1DD
  8
DIMENSIONS
  6
CONTINUOUS
 10
410.0
 20
1015.0
 30
0.0
 11
410.0
 21
1054.373925
 31
0.0
  0
LINE
  5
1DE
  8
DIMENSIONS
  6
CONTINUOUS
 10
698.0
 20
1015.0
 30
0.0
 11
698.0
 21
1054.373925
 31
0.0
  0
LINE
  5
1DF
  8
DIMENSIONS
  6
CONTINUOUS
 10
435.0
 20
1039.373925
 30
0.0
 11
673.0
 21
1039.373925
 31
0.0
  0
SOLID
  5
1E0
  8
DIMENSIONS
  6
CONTINUOUS
 10
435.0
 20
1043.540592
 30
0.0
 11
435.0
 21
1035.207258
 31
0.0
 12
410.0
 22
1039.373925
 32
0.0
 13
410.0
 23
1039.373925
 33
0.0
  0
SOLID
  5
1E1
  8
DIMENSIONS
  6
CONTINUOUS
 10
673.0
 20
1043.540592
 30
0.0
 11
673.0
 21
1035.207258
 31
0.0
 12
698.0
 22
1039.373925
 32
0.0
 13
698.0
 23
1039.373925
 33
0.0
  0
TEXT
  5
1E2
  8
DIMENSIONS
  6
CONTINUOUS
 10
510.547619
 20
1064.373925
 30
0.0
 40
25.0
  1
%%c288
  0
TEXT
  5
1E3
  8
STELTXT
 10
1348.262262
 20
418.130062
 30
0.0
 40
25.0
  1
1 x 2" SIDE FACING RETURN TAPPING
  0
LINE
  5
1E4
  8
STELTXT
 10
989.503575
 20
356.902032
 30
0.0
 11
1258.901432
 21
429.680808
 31
0.0
  0
SOLID
  5
1E5
  8
STELTXT
 10
990.590259
 20
352.879566
 30
0.0
 11
988.416892
 21
360.924498
 31
0.0
 12
965.368781
 22
350.381933
 32
0.0
 13
965.368781
 23
350.381933
 33
0.0
  0
LINE
  5
1E6
  8
STELTXT
 10
1489.668726
 20
1112.774714
 30
0.0
 11
1436.979828
 21
1112.774714
 31
0.0
  0
LINE
  5
1E7
  8
STELTXT
 10
1326.554347
 20
429.680808
 30
0.0
 11
1258.901432
 21
429.680808
 31
0.0
  0
TEXT
  5
1E8
  8
STELTXT
 10
-1064.814701
 20
1099.851092
 30
0.0
 40
25.0
  1
1 x 2" SIDE FACING FLOW FLANGE
  0
LINE
  5
1E9
  8
STELTXT
 10
-252.810602
 20
730.619618
 30
0.0
 11
-320.270641
 21
1112.774714
 31
0.0
  0
LINE
  5
1EA
  8
STELTXT
 10
-382.668726
 20
1112.774714
 30
0.0
 11
-329.979828
 21
1112.774714
 31
0.0
  0
LINE
  5
1EB
  8
STELTXT
 10
-372.95954
 20
1112.774714
 30
0.0
 11
-320.270641
 21
1112.774714
 31
0.0
  0
SOLID
  5
1EC
  8
STELTXT
 10
-256.913828
 20
729.895295
 30
0.0
 11
-248.707375
 21
731.343941
 31
0.0
 12
-248.464662
 22
706.00026
 32
0.0
 13
-248.464662
 23
706.00026
 33
0.0
  0
TEXT
  5
1ED
  8
STELTXT
 10
-969.833691
 20
418.130062
 30
0.0
 40
25.0
  1
1 x 2" SIDE FACING RETURN TAPPING
  0
LINE
  5
1EE
  8
STELTXT
 10
117.496425
 20
356.902032
 30
0.0
 11
-151.901432
 21
429.680808
 31
0.0
  0
LINE
  5
1EF
  8
STELTXT
 10
-219.554347
 20
429.680808
 30
0.0
 11
-151.901432
 21
429.680808
 31
0.0
  0
SOLID
  5
1F0
  8
STELTXT
 10
116.409741
 20
352.879566
 30
0.0
 11
118.583108
 21
360.924498
 31
0.0
 12
141.631219
 22
350.381933
 32
0.0
 13
141.631219
 23
350.381933
 33
0.0
  0
ATTDEF
  5
224
  8
STELATT
 10
505.896237
 20
-544.324227
 30
0.0
 40
40.0
  1
CXSi 110
 72
     4
 11
599.22957
 21
-524.324227
 31
0.0
  3

  2
MODEL
 70
     2
  0
ATTDEF
  5
225
  8
STELATT
 10
509.181993
 20
-474.324227
 30
0.0
 40
40.0
  1
CONCORD 
 72
     4
 11
577.753422
 21
-454.324227
 31
0.0
  3

  2
TYPE
 70
     2
  0
ATTDEF
  5
226
  8
STELATT
 10
365.896229
 20
-404.324227
 30
0.0
 40
40.0
  1
IDEAL
 72
     4
 11
599.229563
 21
-384.324227
 31
0.0
  3

  2
MANUFACTURER
 70
     2
  0
CIRCLE
  5
261
  8
DETAIL
 10
930.188804
 20
940.309781
 30
0.0
 40
3.5
  0
CIRCLE
  5
262
  8
DETAIL
 10
936.505343
 20
915.49555
 30
0.0
 40
3.5
  0
CIRCLE
  5
263
  8
DETAIL
 10
936.505343
 20
965.124012
 30
0.0
 40
3.5
  0
LINE
  5
264
  8
DETAIL
 10
1024.90951
 20
954.309781
 30
0.0
 11
1024.90951
 21
949.12864
 31
0.0
  0
CIRCLE
  5
265
  8
DETAIL
 10
1024.90951
 20
940.309781
 30
0.0
 40
14.0
  0
CIRCLE
  5
266
  8
DETAIL
 10
973.010459
 20
940.309781
 30
0.0
 40
3.5
  0
LINE
  5
26D
  8
FLHDR
 10
1271.312719
 20
745.0
 30
0.0
 11
1254.159667
 21
745.0
 31
0.0
  0
LINE
  5
26E
  8
FLHDR
 10
1334.0
 20
665.0
 30
0.0
 11
1145.0
 21
665.0
 31
0.0
  0
LINE
  5
26F
  8
FLHDR
 10
1137.0
 20
749.0
 30
0.0
 11
1137.0
 21
661.0
 31
0.0
  0
LINE
  5
270
  8
FLHDR
 10
1137.0
 20
665.0
 30
0.0
 11
1107.0
 21
665.0
 31
0.0
  0
LINE
  5
271
  8
FLHDR
 10
1141.0
 20
661.0
 30
0.0
 11
1137.0
 21
661.0
 31
0.0
  0
LINE
  5
272
  8
FLHDR
 10
1141.0
 20
661.0
 30
0.0
 11
1145.0
 21
665.0
 31
0.0
  0
LINE
  5
273
  8
FLHDR
 10
1176.367947
 20
745.0
 30
0.0
 11
1145.0
 21
745.0
 31
0.0
  0
LINE
  5
274
  8
FLHDR
 10
1137.0
 20
745.0
 30
0.0
 11
1107.0
 21
745.0
 31
0.0
  0
LINE
  5
275
  8
FLHDR
 10
1141.0
 20
749.0
 30
0.0
 11
1137.0
 21
749.0
 31
0.0
  0
LINE
  5
276
  8
FLHDR
 10
1141.0
 20
749.0
 30
0.0
 11
1145.0
 21
745.0
 31
0.0
  0
LINE
  5
277
  8
FLHDR
 10
1223.840333
 20
745.0
 30
0.0
 11
1206.687281
 21
745.0
 31
0.0
  0
LINE
  5
278
  8
FLHDR
 10
1176.367947
 20
753.0
 30
0.0
 11
1206.687281
 21
753.0
 31
0.0
  0
LINE
  5
279
  8
FLHDR
 10
1176.367947
 20
753.0
 30
0.0
 11
1176.367947
 21
745.0
 31
0.0
  0
LINE
  5
27A
  8
FLHDR
 10
1206.687281
 20
753.0
 30
0.0
 11
1206.687281
 21
745.0
 31
0.0
  0
LINE
  5
27B
  8
FLHDR
 10
1254.159667
 20
753.0
 30
0.0
 11
1223.840333
 21
753.0
 31
0.0
  0
LINE
  5
27C
  8
FLHDR
 10
1223.840333
 20
753.0
 30
0.0
 11
1223.840333
 21
745.0
 31
0.0
  0
LINE
  5
27D
  8
FLHDR
 10
1254.159667
 20
753.0
 30
0.0
 11
1254.159667
 21
745.0
 31
0.0
  0
LINE
  5
27E
  8
FLHDR
 10
1334.0
 20
790.0
 30
0.0
 11
1334.0
 21
620.0
 31
0.0
  0
LINE
  5
27F
  8
FLHDR
 10
1352.0
 20
790.0
 30
0.0
 11
1352.0
 21
620.0
 31
0.0
  0
LINE
  5
280
  8
FLHDR
 10
1352.0
 20
620.0
 30
0.0
 11
1334.0
 21
620.0
 31
0.0
  0
LINE
  5
281
  8
FLHDR
 10
1334.0
 20
745.0
 30
0.0
 11
1301.632053
 21
745.0
 31
0.0
  0
LINE
  5
282
  8
FLHDR
 10
1301.632053
 20
753.0
 30
0.0
 11
1271.312719
 21
753.0
 31
0.0
  0
LINE
  5
283
  8
FLHDR
 10
1271.312719
 20
753.0
 30
0.0
 11
1271.312719
 21
745.0
 31
0.0
  0
LINE
  5
284
  8
FLHDR
 10
1301.632053
 20
753.0
 30
0.0
 11
1301.632053
 21
745.0
 31
0.0
  0
LINE
  5
285
  8
FLHDR
 10
1352.0
 20
790.0
 30
0.0
 11
1334.0
 21
790.0
 31
0.0
  0
LINE
  5
286
  8
FLHDL
 10
-227.0
 20
790.0
 30
0.0
 11
-227.0
 21
620.0
 31
0.0
  0
LINE
  5
287
  8
FLHDL
 10
-30.0
 20
749.0
 30
0.0
 11
-30.0
 21
661.0
 31
0.0
  0
LINE
  5
288
  8
FLHDL
 10
-245.0
 20
790.0
 30
0.0
 11
-245.0
 21
620.0
 31
0.0
  0
LINE
  5
289
  8
FLHDL
 10
-227.0
 20
665.0
 30
0.0
 11
-38.0
 21
665.0
 31
0.0
  0
LINE
  5
28A
  8
FLHDL
 10
-245.0
 20
620.0
 30
0.0
 11
-227.0
 21
620.0
 31
0.0
  0
LINE
  5
28B
  8
FLHDL
 10
-30.0
 20
665.0
 30
0.0
 11
0.0
 21
665.0
 31
0.0
  0
LINE
  5
28C
  8
FLHDL
 10
-34.0
 20
661.0
 30
0.0
 11
-30.0
 21
661.0
 31
0.0
  0
LINE
  5
28D
  8
FLHDL
 10
-34.0
 20
661.0
 30
0.0
 11
-38.0
 21
665.0
 31
0.0
  0
LINE
  5
28E
  8
FLHDL
 10
-69.367947
 20
745.0
 30
0.0
 11
-38.0
 21
745.0
 31
0.0
  0
LINE
  5
28F
  8
FLHDL
 10
-164.312719
 20
745.0
 30
0.0
 11
-147.159667
 21
745.0
 31
0.0
  0
LINE
  5
290
  8
FLHDL
 10
-227.0
 20
745.0
 30
0.0
 11
-194.632053
 21
745.0
 31
0.0
  0
LINE
  5
291
  8
FLHDL
 10
-245.0
 20
790.0
 30
0.0
 11
-227.0
 21
790.0
 31
0.0
  0
LINE
  5
292
  8
FLHDL
 10
-194.632053
 20
753.0
 30
0.0
 11
-164.312719
 21
753.0
 31
0.0
  0
LINE
  5
293
  8
FLHDL
 10
-194.632053
 20
753.0
 30
0.0
 11
-194.632053
 21
745.0
 31
0.0
  0
LINE
  5
294
  8
FLHDL
 10
-164.312719
 20
753.0
 30
0.0
 11
-164.312719
 21
745.0
 31
0.0
  0
LINE
  5
295
  8
FLHDL
 10
-116.840333
 20
745.0
 30
0.0
 11
-99.687281
 21
745.0
 31
0.0
  0
LINE
  5
296
  8
FLHDL
 10
-147.159667
 20
753.0
 30
0.0
 11
-116.840333
 21
753.0
 31
0.0
  0
LINE
  5
297
  8
FLHDL
 10
-147.159667
 20
753.0
 30
0.0
 11
-147.159667
 21
745.0
 31
0.0
  0
LINE
  5
298
  8
FLHDL
 10
-116.840333
 20
753.0
 30
0.0
 11
-116.840333
 21
745.0
 31
0.0
  0
LINE
  5
299
  8
FLHDL
 10
-69.367947
 20
753.0
 30
0.0
 11
-99.687281
 21
753.0
 31
0.0
  0
LINE
  5
29A
  8
FLHDL
 10
-99.687281
 20
753.0
 30
0.0
 11
-99.687281
 21
745.0
 31
0.0
  0
LINE
  5
29B
  8
FLHDL
 10
-69.367947
 20
753.0
 30
0.0
 11
-69.367947
 21
745.0
 31
0.0
  0
LINE
  5
29C
  8
FLHDL
 10
-30.0
 20
745.0
 30
0.0
 11
0.0
 21
745.0
 31
0.0
  0
LINE
  5
29D
  8
FLHDL
 10
-34.0
 20
749.0
 30
0.0
 11
-30.0
 21
749.0
 31
0.0
  0
LINE
  5
29E
  8
FLHDL
 10
-34.0
 20
749.0
 30
0.0
 11
-38.0
 21
745.0
 31
0.0
  0
ENDSEC
  0
EOF
