  0
SECTION
  2
HEADER
  9
$ACADVER
  1
AC1009
  9
$INSBASE
 10
262.813775
 20
-262.813775
 30
0.0
  9
$EXTMIN
 10
-100.020576
 20
-544.349196
 30
0.0
  9
$EXTMAX
 10
1107.011563
 20
1036.116289
 30
0.0
  9
$LIMMIN
 10
0.0
 20
0.0
  9
$LIMMAX
 10
420.0
 20
297.0
  9
$ORTHOMODE
 70
     1
  9
$REGENMODE
 70
     1
  9
$FILLMODE
 70
     1
  9
$QTEXTMODE
 70
     0
  9
$MIRRTEXT
 70
     0
  9
$DRAGMODE
 70
     2
  9
$LTSCALE
 40
25.0
  9
$OSMODE
 70
     0
  9
$ATTMODE
 70
     1
  9
$TEXTSIZE
 40
3.0
  9
$TRACEWID
 40
10.0
  9
$TEXTSTYLE
  7
STANDARD
  9
$CLAYER
  8
0
  9
$CELTYPE
  6
BYLAYER
  9
$CECOLOR
 62
   256
  9
$DIMSCALE
 40
1.0
  9
$DIMASZ
 40
25.0
  9
$DIMEXO
 40
15.0
  9
$DIMDLI
 40
10.0
  9
$DIMRND
 40
0.0
  9
$DIMDLE
 40
1.25
  9
$DIMEXE
 40
15.0
  9
$DIMTP
 40
0.0
  9
$DIMTM
 40
0.0
  9
$DIMTXT
 40
25.0
  9
$DIMCEN
 40
-3.0
  9
$DIMTSZ
 40
0.0
  9
$DIMTOL
 70
     0
  9
$DIMLIM
 70
     0
  9
$DIMTIH
 70
     0
  9
$DIMTOH
 70
     0
  9
$DIMSE1
 70
     0
  9
$DIMSE2
 70
     0
  9
$DIMTAD
 70
     0
  9
$DIMZIN
 70
     1
  9
$DIMBLK
  1

  9
$DIMASO
 70
     0
  9
$DIMSHO
 70
     0
  9
$DIMPOST
  1

  9
$DIMAPOST
  1

  9
$DIMALT
 70
     0
  9
$DIMALTD
 70
     2
  9
$DIMALTF
 40
0.039
  9
$DIMLFAC
 40
1.0
  9
$DIMTOFL
 70
     0
  9
$DIMTVP
 40
1.5
  9
$DIMTIX
 70
     0
  9
$DIMSOXD
 70
     0
  9
$DIMSAH
 70
     0
  9
$DIMBLK1
  1

  9
$DIMBLK2
  1

  9
$DIMSTYLE
  2
-
  9
$DIMCLRD
 70
     0
  9
$DIMCLRE
 70
     0
  9
$DIMCLRT
 70
     0
  9
$DIMTFAC
 40
1.0
  9
$DIMGAP
 40
0.09
  9
$LUNITS
 70
     2
  9
$LUPREC
 70
     2
  9
$SKETCHINC
 40
10.0
  9
$FILLETRAD
 40
0.0
  9
$AUNITS
 70
     0
  9
$AUPREC
 70
     4
  9
$MENU
  1
acad
  9
$ELEVATION
 40
0.0
  9
$PELEVATION
 40
0.0
  9
$THICKNESS
 40
0.0
  9
$LIMCHECK
 70
     0
  9
$BLIPMODE
 70
     0
  9
$CHAMFERA
 40
0.0
  9
$CHAMFERB
 40
0.0
  9
$SKPOLY
 70
     1
  9
$TDCREATE
 40
2450098.618908
  9
$TDUPDATE
 40
2453073.533315
  9
$TDINDWG
 40
0.174762
  9
$TDUSRTIMER
 40
0.174762
  9
$USRTIMER
 70
     1
  9
$ANGBASE
 50
0.0
  9
$ANGDIR
 70
     0
  9
$PDMODE
 70
     3
  9
$PDSIZE
 40
0.0
  9
$PLINEWID
 40
0.0
  9
$COORDS
 70
     1
  9
$SPLFRAME
 70
     0
  9
$SPLINETYPE
 70
     6
  9
$SPLINESEGS
 70
     6
  9
$ATTDIA
 70
     0
  9
$ATTREQ
 70
     1
  9
$HANDLING
 70
 22529
  9
$HANDSEED
  5
4CE
  9
$SURFTAB1
 70
    12
  9
$SURFTAB2
 70
    12
  9
$SURFTYPE
 70
     6
  9
$SURFU
 70
    12
  9
$SURFV
 70
    12
  9
$UCSNAME
  2

  9
$UCSORG
 10
0.0
 20
0.0
 30
0.0
  9
$UCSXDIR
 10
1.0
 20
0.0
 30
0.0
  9
$UCSYDIR
 10
0.0
 20
1.0
 30
0.0
  9
$PUCSNAME
  2

  9
$PUCSORG
 10
0.0
 20
0.0
 30
0.0
  9
$PUCSXDIR
 10
1.0
 20
0.0
 30
0.0
  9
$PUCSYDIR
 10
0.0
 20
1.0
 30
0.0
  9
$USERI1
 70
     0
  9
$USERI2
 70
     0
  9
$USERI3
 70
     0
  9
$USERI4
 70
     0
  9
$USERI5
 70
     0
  9
$USERR1
 40
0.0
  9
$USERR2
 40
0.0
  9
$USERR3
 40
0.0
  9
$USERR4
 40
0.0
  9
$USERR5
 40
0.0
  9
$WORLDVIEW
 70
     0
  9
$SHADEDGE
 70
     3
  9
$SHADEDIF
 70
    70
  9
$TILEMODE
 70
     1
  9
$MAXACTVP
 70
    16
  9
$PLIMCHECK
 70
     0
  9
$PEXTMIN
 10
1.000000E+020
 20
1.000000E+020
 30
1.000000E+020
  9
$PEXTMAX
 10
-1.000000E+020
 20
-1.000000E+020
 30
-1.000000E+020
  9
$PLIMMIN
 10
0.0
 20
0.0
  9
$PLIMMAX
 10
12.0
 20
9.0
  9
$UNITMODE
 70
     0
  9
$VISRETAIN
 70
     0
  9
$PLINEGEN
 70
     0
  9
$PSLTSCALE
 70
     0
  0
ENDSEC
  0
SECTION
  2
TABLES
  0
TABLE
  2
VPORT
 70
     2
  0
VPORT
  2
*ACTIVE
 70
     0
 10
0.0
 20
0.0
 11
1.0
 21
1.0
 12
503.495493
 22
245.883547
 13
0.0
 23
0.0
 14
1000.0
 24
1000.0
 15
0.0
 25
0.0
 16
0.0
 26
0.0
 36
1.0
 17
0.0
 27
0.0
 37
0.0
 40
1598.666623
 41
1.825
 42
50.0
 43
0.0
 44
0.0
 50
0.0
 51
0.0
 71
     0
 72
  2000
 73
     1
 74
     2
 75
     0
 76
     0
 77
     0
 78
     0
  0
ENDTAB
  0
TABLE
  2
LTYPE
 70
     3
  0
LTYPE
  2
CONTINUOUS
 70
     0
  3
Solid line
 72
    65
 73
     0
 40
0.0
  0
LTYPE
  2
CENTER
 70
     0
  3
____ _ ____ _ ____ _ ____ _ ____ _ ____ _ ____
 72
    65
 73
     4
 40
2.0
 49
1.25
 49
-0.25
 49
0.25
 49
-0.25
  0
LTYPE
  2
DASHED
 70
     0
  3
__ __ __ __ __ __ __ __ __ __ __ __ __ __ __
 72
    65
 73
     2
 40
0.75
 49
0.5
 49
-0.25
  0
ENDTAB
  0
TABLE
  2
LAYER
 70
    15
  0
LAYER
  2
0
 70
     0
 62
     7
  6
CONTINUOUS
  0
LAYER
  2
DETAIL
 70
     0
 62
     2
  6
CONTINUOUS
  0
LAYER
  2
DIMENSIONS
 70
     1
 62
     7
  6
CONTINUOUS
  0
LAYER
  2
CENTER
 70
     1
 62
     4
  6
CENTER
  0
LAYER
  2
ORIGIN
 70
     0
 62
     6
  6
CONTINUOUS
  0
LAYER
  2
PLANNING
 70
     1
 62
     1
  6
DASHED
  0
LAYER
  2
STELTXT
 70
     1
 62
     4
  6
CONTINUOUS
  0
LAYER
  2
FLHDR
 70
     1
 62
     3
  6
CONTINUOUS
  0
LAYER
  2
FLHDL
 70
     1
 62
     3
  6
CONTINUOUS
  0
LAYER
  2
DIMFLHDL
 70
     1
 62
     7
  6
CONTINUOUS
  0
LAYER
  2
DIMFLHDR
 70
     1
 62
     7
  6
CONTINUOUS
  0
LAYER
  2
FLHDRTXT
 70
     1
 62
     3
  6
CONTINUOUS
  0
LAYER
  2
FLHDLTXT
 70
     1
 62
     3
  6
CONTINUOUS
  0
LAYER
  2
ASHADE
 70
     1
 62
     7
  6
CONTINUOUS
  0
LAYER
  2
STELATT
 70
     0
 62
     7
  6
CONTINUOUS
  0
ENDTAB
  0
TABLE
  2
STYLE
 70
     1
  0
STYLE
  2
STANDARD
 70
     0
 40
0.0
 41
1.0
 50
0.0
 71
     0
 42
3.0
  3
simplex
  4

  0
ENDTAB
  0
TABLE
  2
VIEW
 70
     0
  0
ENDTAB
  0
TABLE
  2
UCS
 70
     0
  0
ENDTAB
  0
TABLE
  2
APPID
 70
     3
  0
APPID
  2
ACAD
 70
     0
  0
APPID
  2
AVE_RENDER
 70
     0
  0
APPID
  2
AVE_MATERIAL
 70
     0
  0
ENDTAB
  0
TABLE
  2
DIMSTYLE
 70
     1
  0
DIMSTYLE
  2
-
 70
     0
  3

  4

  5

  6

  7

 40
1.0
 41
0.18
 42
0.0625
 43
0.38
 44
0.18
 45
0.0
 46
0.0
 47
0.0
 48
0.0
140
0.18
141
0.09
142
0.0
143
25.4
144
1.0
145
0.0
146
1.0
147
0.09
 71
     0
 72
     0
 73
     1
 74
     1
 75
     0
 76
     0
 77
     0
 78
     0
170
     0
171
     2
172
     0
173
     0
174
     0
175
     0
176
     0
177
     0
178
     0
  0
ENDTAB
  0
ENDSEC
  0
SECTION
  2
BLOCKS
  0
BLOCK
  8
0
  2
$MODEL_SPACE
 70
     0
 10
0.0
 20
0.0
 30
0.0
  3
$MODEL_SPACE
  1

  0
ENDBLK
  5
2CC
  8
0
  0
BLOCK
 67
     1
  8
0
  2
$PAPER_SPACE
 70
     0
 10
0.0
 20
0.0
 30
0.0
  3
$PAPER_SPACE
  1

  0
ENDBLK
  5
2CA
 67
     1
  8
0
  0
BLOCK
  8
0
  2
AVE_RENDER
 70
     0
 10
0.0
 20
0.0
 30
0.0
  3
AVE_RENDER
  1
AVE_RENDER
  0
ENDBLK
  5
1F1
  8
0
  0
BLOCK
  8
0
  2
AVE_GLOBAL
 70
     0
 10
0.0
 20
0.0
 30
0.0
  3
AVE_GLOBAL
  1
AVE_GLOBAL
  0
ENDBLK
  5
1FF
  8
0
  0
ENDSEC
  0
SECTION
  2
ENTITIES
  0
LINE
  5
35
  8
PLANNING
 10
-100.0
 20
1236.0
 30
0.0
 11
-100.0
 21
-750.0
 31
0.0
  0
LINE
  5
36
  8
PLANNING
 10
1207.0
 20
1236.0
 30
0.0
 11
1207.0
 21
-750.0
 31
0.0
  0
LINE
  5
37
  8
PLANNING
 10
-100.0
 20
1236.0
 30
0.0
 11
1207.0
 21
1236.0
 31
0.0
  0
LINE
  5
38
  8
PLANNING
 10
-100.0
 20
-750.0
 30
0.0
 11
1207.0
 21
-750.0
 31
0.0
  0
TEXT
  5
39
  8
STELTXT
 10
1667.943336
 20
1065.308674
 30
0.0
 40
15.0
  1
1
  0
TEXT
  5
3A
  8
STELTXT
 10
1684.216735
 20
1056.494524
 30
0.0
 40
15.0
  1
2
  0
TEXT
  5
3B
  8
STELTXT
 10
1674.723919
 20
1059.20657
 30
0.0
 40
15.0
  1
/
  0
TEXT
  5
3C
  8
STELTXT
 10
1431.966119
 20
1055.450482
 30
0.0
 40
25.0
  1
GAS INLET 1 " BSP
  0
TEXT
  5
40
  8
DIMENSIONS
 10
514.214286
 20
-200.0
 30
0.0
 40
25.0
  1
1107
  0
SOLID
  5
41
  8
DIMENSIONS
 10
1082.0
 20
-229.166667
 30
0.0
 11
1082.0
 21
-220.833333
 31
0.0
 12
1107.0
 22
-225.0
 32
0.0
 13
1107.0
 23
-225.0
 33
0.0
  0
SOLID
  5
42
  8
DIMENSIONS
 10
25.0
 20
-229.166667
 30
0.0
 11
25.0
 21
-220.833333
 31
0.0
 12
0.0
 22
-225.0
 32
0.0
 13
0.0
 23
-225.0
 33
0.0
  0
LINE
  5
43
  8
DIMENSIONS
 10
25.0
 20
-225.0
 30
0.0
 11
1082.0
 21
-225.0
 31
0.0
  0
LINE
  5
44
  8
DIMENSIONS
 10
1107.0
 20
-15.0
 30
0.0
 11
1107.0
 21
-240.0
 31
0.0
  0
LINE
  5
45
  8
DIMENSIONS
 10
0.0
 20
-15.0
 30
0.0
 11
0.0
 21
-240.0
 31
0.0
  0
LINE
  5
46
  8
DIMENSIONS
 10
962.0
 20
626.0
 30
0.0
 11
962.0
 21
-140.0
 31
0.0
  0
LINE
  5
47
  8
DIMENSIONS
 10
171.0
 20
-125.0
 30
0.0
 11
937.0
 21
-125.0
 31
0.0
  0
SOLID
  5
48
  8
DIMENSIONS
 10
171.0
 20
-129.166667
 30
0.0
 11
171.0
 21
-120.833333
 31
0.0
 12
146.0
 22
-125.0
 32
0.0
 13
146.0
 23
-125.0
 33
0.0
  0
SOLID
  5
49
  8
DIMENSIONS
 10
937.0
 20
-129.166667
 30
0.0
 11
937.0
 21
-120.833333
 31
0.0
 12
962.0
 22
-125.0
 32
0.0
 13
962.0
 23
-125.0
 33
0.0
  0
TEXT
  5
4A
  8
DIMENSIONS
 10
524.833333
 20
-100.0
 30
0.0
 40
25.0
  1
816
  0
LINE
  5
4B
  8
DIMENSIONS
 10
146.0
 20
626.0
 30
0.0
 11
146.0
 21
-140.0
 31
0.0
  0
LINE
  5
4C
  8
CENTER
 10
962.0
 20
791.0
 30
0.0
 11
962.0
 21
641.0
 31
0.0
  0
LINE
  5
4D
  8
CENTER
 10
1037.0
 20
716.0
 30
0.0
 11
887.0
 21
716.0
 31
0.0
  0
LINE
  5
4E
  8
CENTER
 10
146.0
 20
791.0
 30
0.0
 11
146.0
 21
641.0
 31
0.0
  0
LINE
  5
4F
  8
CENTER
 10
221.0
 20
716.0
 30
0.0
 11
-333.780097
 21
716.0
 31
0.0
  0
POLYLINE
  5
50
  8
ORIGIN
 66
     1
 10
0.0
 20
0.0
 30
0.0
  0
VERTEX
  5
4C5
  8
ORIGIN
 10
0.0
 20
0.0
 30
0.0
  0
VERTEX
  5
4C6
  8
ORIGIN
 10
-100.0
 20
-100.0
 30
0.0
  0
VERTEX
  5
4C7
  8
ORIGIN
 10
-100.0
 20
100.0
 30
0.0
  0
VERTEX
  5
4C8
  8
ORIGIN
 10
100.0
 20
-100.0
 30
0.0
  0
VERTEX
  5
4C9
  8
ORIGIN
 10
100.0
 20
100.0
 30
0.0
  0
VERTEX
  5
4CA
  8
ORIGIN
 10
0.0
 20
0.0
 30
0.0
  0
SEQEND
  5
4CB
  8
ORIGIN
  0
TEXT
  5
58
  8
STELTXT
 10
1751.625024
 20
176.607653
 30
0.0
 40
25.0
  1
1 x 2" SIDE FACING FLOW FLANGE
  0
SOLID
  5
59
  8
STELTXT
 10
1123.599363
 20
858.623948
 30
0.0
 11
1129.491919
 21
852.731391
 31
0.0
 12
1108.867972
 22
838.0
 32
0.0
 13
1108.867972
 23
838.0
 33
0.0
  0
LINE
  5
5A
  8
STELTXT
 10
1126.545641
 20
855.67767
 30
0.0
 11
1337.57598
 21
1066.708009
 31
0.0
  0
LINE
  5
5B
  8
STELTXT
 10
1337.57598
 20
1066.708009
 30
0.0
 11
1411.794523
 21
1066.708009
 31
0.0
  0
TEXT
  5
5C
  8
DIMENSIONS
 10
1552.0
 20
437.714286
 30
0.0
 40
25.0
  1
1036
 50
90.0
  0
SOLID
  5
5D
  8
DIMENSIONS
 10
1581.166667
 20
1011.0
 30
0.0
 11
1572.833333
 21
1011.0
 31
0.0
 12
1577.0
 22
1036.0
 32
0.0
 13
1577.0
 23
1036.0
 33
0.0
  0
SOLID
  5
5E
  8
DIMENSIONS
 10
1581.166667
 20
25.0
 30
0.0
 11
1572.833333
 21
25.0
 31
0.0
 12
1577.0
 22
0.0
 32
0.0
 13
1577.0
 23
0.0
 33
0.0
  0
LINE
  5
5F
  8
DIMENSIONS
 10
1577.0
 20
25.0
 30
0.0
 11
1577.0
 21
1011.0
 31
0.0
  0
LINE
  5
60
  8
DIMENSIONS
 10
1592.0
 20
1036.0
 30
0.0
 11
1592.0
 21
1036.0
 31
0.0
  0
LINE
  5
61
  8
DIMENSIONS
 10
1122.0
 20
0.0
 30
0.0
 11
1592.0
 21
0.0
 31
0.0
  0
TEXT
  5
65
  8
DIMENSIONS
 10
1419.338261
 20
747.238095
 30
0.0
 40
25.0
  1
122
 50
90.0
  0
SOLID
  5
66
  8
DIMENSIONS
 10
1428.833333
 20
741.0
 30
0.0
 11
1437.166667
 21
741.0
 31
0.0
 12
1433.0
 22
716.0
 32
0.0
 13
1433.0
 23
716.0
 33
0.0
  0
SOLID
  5
67
  8
DIMENSIONS
 10
1428.833333
 20
813.0
 30
0.0
 11
1437.166667
 21
813.0
 31
0.0
 12
1433.0
 22
838.0
 32
0.0
 13
1433.0
 23
838.0
 33
0.0
  0
LINE
  5
68
  8
DIMENSIONS
 10
1433.0
 20
813.0
 30
0.0
 11
1433.0
 21
741.0
 31
0.0
  0
LINE
  5
69
  8
DIMENSIONS
 10
-310.0
 20
716.0
 30
0.0
 11
-310.0
 21
716.0
 31
0.0
  0
LINE
  5
6B
  8
DETAIL
 10
146.0
 20
1036.0
 30
0.0
 11
146.0
 21
811.5
 31
0.0
  0
LINE
  5
6C
  8
DETAIL
 10
962.0
 20
1036.0
 30
0.0
 11
962.0
 21
811.5
 31
0.0
  0
TEXT
  5
6D
  8
DIMENSIONS
 10
1307.0
 20
913.736606
 30
0.0
 40
25.0
  1
175
 50
90.0
  0
SOLID
  5
6E
  8
DIMENSIONS
 10
1336.166667
 20
886.0
 30
0.0
 11
1327.833333
 21
886.0
 31
0.0
 12
1332.0
 22
861.0
 32
0.0
 13
1332.0
 23
861.0
 33
0.0
  0
SOLID
  5
6F
  8
DIMENSIONS
 10
1336.166667
 20
1011.0
 30
0.0
 11
1327.833333
 21
1011.0
 31
0.0
 12
1332.0
 22
1036.0
 32
0.0
 13
1332.0
 23
1036.0
 33
0.0
  0
LINE
  5
70
  8
DIMENSIONS
 10
1332.0
 20
1011.0
 30
0.0
 11
1332.0
 21
886.0
 31
0.0
  0
LINE
  5
72
  8
CENTER
 10
732.0
 20
861.0
 30
0.0
 11
376.0
 21
861.0
 31
0.0
  0
LINE
  5
73
  8
CENTER
 10
554.0
 20
1039.0
 30
0.0
 11
554.0
 21
686.0
 31
0.0
  0
LINE
  5
81
  8
DIMENSIONS
 10
484.626197
 20
-50.0
 30
0.0
 11
-340.0
 21
-50.0
 31
0.0
  0
TEXT
  5
82
  8
DIMENSIONS
 10
-350.0
 20
309.857143
 30
0.0
 40
25.0
  1
766
 50
90.0
  0
SOLID
  5
83
  8
DIMENSIONS
 10
-320.833333
 20
691.0
 30
0.0
 11
-329.166667
 21
691.0
 31
0.0
 12
-325.0
 22
716.0
 32
0.0
 13
-325.0
 23
716.0
 33
0.0
  0
SOLID
  5
84
  8
DIMENSIONS
 10
-320.833333
 20
-25.0
 30
0.0
 11
-329.166667
 21
-25.0
 31
0.0
 12
-325.0
 22
-50.0
 32
0.0
 13
-325.0
 23
-50.0
 33
0.0
  0
LINE
  5
85
  8
DIMENSIONS
 10
-325.0
 20
-45.091338
 30
0.0
 11
-325.0
 21
691.0
 31
0.0
  0
LINE
  5
87
  8
DIMENSIONS
 10
-15.0
 20
-50.0
 30
0.0
 11
-340.0
 21
-50.0
 31
0.0
  0
LINE
  5
88
  8
CENTER
 10
1011.0
 20
838.0
 30
0.0
 11
1161.0
 21
838.0
 31
0.0
  0
LINE
  5
89
  8
DETAIL
 10
689.224813
 20
811.5
 30
0.0
 11
1107.0
 21
811.5
 31
0.0
  0
LINE
  5
8A
  8
DETAIL
 10
0.0
 20
811.5
 30
0.0
 11
418.775187
 21
811.5
 31
0.0
  0
CIRCLE
  5
8B
  8
DETAIL
 10
554.0
 20
861.0
 30
0.0
 40
144.0
  0
LINE
  5
8C
  8
DETAIL
 10
1107.0
 20
936.0
 30
0.0
 11
1107.0
 21
-50.0
 31
0.0
  0
LINE
  5
8D
  8
DETAIL
 10
0.0
 20
936.0
 30
0.0
 11
0.0
 21
0.0
 31
0.0
  0
LINE
  5
8E
  8
DETAIL
 10
146.0
 20
1036.0
 30
0.0
 11
962.0
 21
1036.0
 31
0.0
  0
LINE
  5
8F
  8
DETAIL
 10
0.0
 20
0.0
 30
0.0
 11
1107.0
 21
0.0
 31
0.0
  0
SOLID
  5
B8
  8
STELTXT
 10
1368.075398
 20
692.480284
 30
0.0
 11
1375.192942
 21
696.814452
 31
0.0
 12
1358.631666
 22
716.0
 32
0.0
 13
1358.631666
 23
716.0
 33
0.0
  0
LINE
  5
B9
  8
STELTXT
 10
1371.63417
 20
694.647368
 30
0.0
 11
1681.182364
 21
186.309194
 31
0.0
  0
LINE
  5
BA
  8
STELTXT
 10
1681.182364
 20
186.309194
 30
0.0
 11
1722.898786
 21
186.309194
 31
0.0
  0
TEXT
  5
F1
  8
STELTXT
 10
1019.09971
 20
1384.689384
 30
0.0
 40
25.0
  1
FLUE OUTLET
  0
LINE
  5
F2
  8
DIMFLHDR
 10
1367.0
 20
801.0
 30
0.0
 11
1385.25614
 21
801.0
 31
0.0
  0
LINE
  5
F3
  8
DIMFLHDR
 10
1367.0
 20
631.0
 30
0.0
 11
1660.167115
 21
631.0
 31
0.0
  0
LINE
  5
F4
  8
DIMFLHDR
 10
1651.743281
 20
801.0
 30
0.0
 11
1651.743281
 21
631.0
 31
0.0
  0
SOLID
  5
F5
  8
DIMFLHDR
 10
1655.909947
 20
776.0
 30
0.0
 11
1647.576614
 21
776.0
 31
0.0
 12
1651.743281
 22
801.0
 32
0.0
 13
1651.743281
 23
801.0
 33
0.0
  0
SOLID
  5
F6
  8
DIMFLHDR
 10
1655.909947
 20
656.0
 30
0.0
 11
1647.576614
 21
656.0
 31
0.0
 12
1651.743281
 22
631.0
 32
0.0
 13
1651.743281
 23
631.0
 33
0.0
  0
TEXT
  5
F7
  8
DIMFLHDR
 10
1626.743281
 20
686.238095
 30
0.0
 40
25.0
  1
170
 50
90.0
  0
LINE
  5
F8
  8
DIMFLHDR
 10
1107.0
 20
776.5
 30
0.0
 11
1107.0
 21
1151.0
 31
0.0
  0
LINE
  5
F9
  8
DIMFLHDR
 10
1352.0
 20
816.0
 30
0.0
 11
1352.0
 21
1151.0
 31
0.0
  0
LINE
  5
FA
  8
DIMFLHDR
 10
1132.0
 20
1136.0
 30
0.0
 11
1327.0
 21
1136.0
 31
0.0
  0
SOLID
  5
FB
  8
DIMFLHDR
 10
1132.0
 20
1131.833333
 30
0.0
 11
1132.0
 21
1140.166667
 31
0.0
 12
1107.0
 22
1136.0
 32
0.0
 13
1107.0
 23
1136.0
 33
0.0
  0
SOLID
  5
FC
  8
DIMFLHDR
 10
1327.0
 20
1131.833333
 30
0.0
 11
1327.0
 21
1140.166667
 31
0.0
 12
1352.0
 22
1136.0
 32
0.0
 13
1352.0
 23
1136.0
 33
0.0
  0
TEXT
  5
FD
  8
DIMFLHDR
 10
1197.357143
 20
1161.0
 30
0.0
 40
25.0
  1
245
  0
TEXT
  5
FE
  8
DIMFLHDL
 10
-154.642857
 20
1161.0
 30
0.0
 40
25.0
  1
245
  0
SOLID
  5
FF
  8
DIMFLHDL
 10
-220.0
 20
1131.833333
 30
0.0
 11
-220.0
 21
1140.166667
 31
0.0
 12
-245.0
 22
1136.0
 32
0.0
 13
-245.0
 23
1136.0
 33
0.0
  0
SOLID
  5
100
  8
DIMFLHDL
 10
-25.0
 20
1131.833333
 30
0.0
 11
-25.0
 21
1140.166667
 31
0.0
 12
0.0
 22
1136.0
 32
0.0
 13
0.0
 23
1136.0
 33
0.0
  0
LINE
  5
101
  8
DIMFLHDL
 10
-25.0
 20
1136.0
 30
0.0
 11
-220.0
 21
1136.0
 31
0.0
  0
LINE
  5
102
  8
DIMFLHDL
 10
-245.0
 20
816.0
 30
0.0
 11
-245.0
 21
1151.0
 31
0.0
  0
LINE
  5
103
  8
DIMFLHDL
 10
0.0
 20
776.5
 30
0.0
 11
0.0
 21
1151.0
 31
0.0
  0
SOLID
  5
104
  8
DIMFLHDL
 10
-429.166667
 20
656.0
 30
0.0
 11
-420.833333
 21
656.0
 31
0.0
 12
-425.0
 22
631.0
 32
0.0
 13
-425.0
 23
631.0
 33
0.0
  0
SOLID
  5
105
  8
DIMFLHDL
 10
-429.166667
 20
776.0
 30
0.0
 11
-420.833333
 21
776.0
 31
0.0
 12
-425.0
 22
801.0
 32
0.0
 13
-425.0
 23
801.0
 33
0.0
  0
LINE
  5
106
  8
DIMFLHDL
 10
-425.0
 20
801.0
 30
0.0
 11
-425.0
 21
656.0
 31
0.0
  0
LINE
  5
107
  8
DIMFLHDL
 10
-259.0
 20
631.0
 30
0.0
 11
-440.0
 21
631.0
 31
0.0
  0
LINE
  5
108
  8
DIMFLHDL
 10
-259.0
 20
801.0
 30
0.0
 11
-425.0
 21
801.0
 31
0.0
  0
TEXT
  5
109
  8
DIMFLHDL
 10
-450.0
 20
686.238095
 30
0.0
 40
25.0
  1
170
 50
90.0
  0
LINE
  5
10A
  8
DIMFLHDL
 10
-385.0
 20
801.0
 30
0.0
 11
-440.0
 21
801.0
 31
0.0
  0
SOLID
  5
10B
  8
STELTXT
 10
572.09943
 20
878.741808
 30
0.0
 11
565.366983
 21
883.652877
 31
0.0
 12
554.0
 22
861.0
 32
0.0
 13
554.0
 23
861.0
 33
0.0
  0
LINE
  5
10C
  8
STELTXT
 10
568.733206
 20
881.197342
 30
0.0
 11
944.984358
 21
1396.989564
 31
0.0
  0
LINE
  5
10D
  8
STELTXT
 10
944.984358
 20
1396.989564
 30
0.0
 11
998.183417
 21
1396.989564
 31
0.0
  0
LINE
  5
10E
  8
DIMENSIONS
 10
978.707218
 20
1036.0
 30
0.0
 11
1592.0
 21
1036.0
 31
0.0
  0
LINE
  5
111
  8
DETAIL
 10
0.0
 20
936.0
 30
0.0
 11
146.0
 21
936.0
 31
0.0
  0
LINE
  5
112
  8
DETAIL
 10
962.0
 20
936.0
 30
0.0
 11
1107.0
 21
936.0
 31
0.0
  0
TEXT
  5
113
  8
STELTXT
 10
-619.693719
 20
1026.626331
 30
0.0
 40
25.0
  1
DRAUGHT SKIRT
  0
LINE
  5
114
  8
STELTXT
 10
-92.299988
 20
1034.504932
 30
0.0
 11
-303.794523
 21
1034.504932
 31
0.0
  0
LINE
  5
115
  8
STELTXT
 10
-20.472192
 20
962.677136
 30
0.0
 11
-92.299988
 21
1034.504932
 31
0.0
  0
SOLID
  5
116
  8
STELTXT
 10
-17.525914
 20
965.623415
 30
0.0
 11
-23.418471
 21
959.730858
 31
0.0
 12
-2.794523
 22
944.999467
 32
0.0
 13
-2.794523
 23
944.999467
 33
0.0
  0
LINE
  5
17B
  8
DIMENSIONS
  6
CONTINUOUS
 10
410.0
 20
876.0
 30
0.0
 11
410.0
 21
1132.28174
 31
0.0
  0
LINE
  5
17C
  8
DIMENSIONS
  6
CONTINUOUS
 10
698.0
 20
876.0
 30
0.0
 11
698.0
 21
1132.28174
 31
0.0
  0
LINE
  5
17D
  8
DIMENSIONS
  6
CONTINUOUS
 10
435.0
 20
1117.28174
 30
0.0
 11
673.0
 21
1117.28174
 31
0.0
  0
SOLID
  5
17E
  8
DIMENSIONS
  6
CONTINUOUS
 10
435.0
 20
1121.448406
 30
0.0
 11
435.0
 21
1113.115073
 31
0.0
 12
410.0
 22
1117.28174
 32
0.0
 13
410.0
 23
1117.28174
 33
0.0
  0
SOLID
  5
17F
  8
DIMENSIONS
  6
CONTINUOUS
 10
673.0
 20
1121.448406
 30
0.0
 11
673.0
 21
1113.115073
 31
0.0
 12
698.0
 22
1117.28174
 32
0.0
 13
698.0
 23
1117.28174
 33
0.0
  0
TEXT
  5
180
  8
DIMENSIONS
  6
CONTINUOUS
 10
521.857143
 20
1142.28174
 30
0.0
 40
25.0
  1
%%C288
  0
LINE
  5
181
  8
DIMENSIONS
  6
CONTINUOUS
 10
124.455157
 20
716.0
 30
0.0
 11
123.831854
 21
716.0
 31
0.0
  0
LINE
  5
183
  8
DIMENSIONS
  6
CONTINUOUS
 10
124.495878
 20
741.0
 30
0.0
 11
124.495878
 21
911.0
 31
0.0
  0
SOLID
  5
184
  8
DIMENSIONS
  6
CONTINUOUS
 10
120.329211
 20
741.0
 30
0.0
 11
128.662545
 21
741.0
 31
0.0
 12
124.495878
 22
716.0
 32
0.0
 13
124.495878
 23
716.0
 33
0.0
  0
SOLID
  5
185
  8
DIMENSIONS
  6
CONTINUOUS
 10
120.329211
 20
911.0
 30
0.0
 11
128.662545
 21
911.0
 31
0.0
 12
124.495878
 22
936.0
 32
0.0
 13
124.495878
 23
936.0
 33
0.0
  0
TEXT
  5
186
  8
DIMENSIONS
  6
CONTINUOUS
 10
113.831854
 20
811.215522
 30
0.0
 40
25.0
  1
220
 50
90.0
  0
INSERT
  5
1F2
  8
ASHADE
 62
     1
  2
AVE_RENDER
 10
0.0
 20
0.0
 30
0.0
1001
AVE_RENDER
1002
{
1070
     6
1000
Pref
1070
    30
1070
    20
1070
     1
1070
     0
1000

1070
    10
1070
     1
1070
    30
1040
1.0
1070
     1
1040
0.3
1040
0.7
1040
0.0
1040
10.0
1010
-1.0
1020
-1.0
1030
-1.0
1040
0.3
1070
    49
1070
     0
1070
     0
1010
1.0
1020
1.0
1030
1.0
1040
45.0
1070
     1
1070
     0
1000
WCS
1040
0.0
1002
}
  0
INSERT
  5
1F3
  8
ASHADE
 62
     3
  2
AVE_RENDER
 10
0.0
 20
0.0
 30
0.0
1001
AVE_RENDER
1002
{
1070
     0
1000
Full Opt
1070
     0
1070
     1
1070
     1
1070
     1
1070
     0
1070
     0
1070
     0
1070
     1
1070
     1
1040
0.0001
1040
0.0001
1002
}
  0
INSERT
  5
1F4
  8
ASHADE
 62
     4
  2
AVE_RENDER
 10
0.0
 20
0.0
 30
0.0
1001
AVE_RENDER
1002
{
1070
     0
1000
Quick Opt
1070
     0
1070
     1
1070
     1
1070
     1
1070
     0
1070
     0
1070
     1
1002
}
  0
INSERT
  5
1F5
  8
ASHADE
 62
     5
  2
AVE_RENDER
 10
0.0
 20
0.0
 30
0.0
1001
AVE_RENDER
1002
{
1070
     1
1000
Scanl Opt
1070
     2
1070
     0
1070
     2
1040
2.0
1040
4.0
1070
     0
1070
     1
1070
     0
1040
0.03
1002
}
  0
INSERT
  5
1F6
  8
ASHADE
 62
     6
  2
AVE_RENDER
 10
0.0
 20
0.0
 30
0.0
1001
AVE_RENDER
1002
{
1070
     2
1000
Raytr Opt
1070
     2
1070
     0
1070
     2
1040
2.0
1040
4.0
1070
     0
1070
     1
1070
     1
1040
0.03
1070
     3
1040
0.03
1002
}
  0
INSERT
  5
1F7
  8
ASHADE
 62
     7
  2
AVE_RENDER
 10
0.0
 20
0.0
 30
0.0
1001
AVE_RENDER
1002
{
1070
     0
1000
RFile Opt
1070
    10
1070
  1600
1070
  1280
1070
 10000
1070
     3
1070
    32
1070
    24
1070
     0
1070
     0
1070
     0
1070
     1
1070
     0
1070
     0
1070
     0
1002
}
  0
INSERT
  5
1F8
  8
ASHADE
 62
     8
  2
AVE_RENDER
 10
0.0
 20
0.0
 30
0.0
1001
AVE_RENDER
1002
{
1070
     0
1000
Fog Opt
1070
     0
1070
     0
1040
0.0
1040
1.0
1040
0.0
1040
1.0
1010
0.5
1020
0.5
1030
0.5
1002
}
  0
INSERT
  5
1F9
  8
ASHADE
 62
     9
  2
AVE_RENDER
 10
0.0
 20
0.0
 30
0.0
1001
AVE_RENDER
1002
{
1070
     0
1000
BG Opt
1070
     0
1070
     1
1010
0.0
1020
0.0
1030
0.0
1010
1.0
1020
0.0
1030
0.0
1010
0.0
1020
1.0
1030
0.0
1010
0.0
1020
0.0
1030
1.0
1040
0.5
1040
0.33
1040
0.0
1000

1070
     1
1000

1070
     1
1070
     1
1040
1.0
1040
1.0
1040
0.0
1040
0.0
1070
     0
1002
}
  0
INSERT
  5
200
  8
ASHADE
 62
     1
  2
AVE_GLOBAL
 10
0.0
 20
0.0
 30
0.0
1001
AVE_MATERIAL
1002
{
1000
*GLOBAL*
1000
1
1000
Global finish.
1002
{
1002
}
1002
{
1070
    63
1002
{
1002
{
1010
-1.0
1020
-1.0
1030
-1.0
1002
}
1040
0.1
1000

1040
0.0
1002
{
1002
}
1040
0.0
1002
{
1002
}
1040
0.0
1002
}
1002
{
1002
{
1010
-1.0
1020
-1.0
1030
-1.0
1002
}
1040
0.7
1000

1040
0.0
1002
{
1002
}
1040
0.0
1002
{
1002
}
1040
0.0
1002
}
1002
{
1002
{
1010
-1.0
1020
-1.0
1030
-1.0
1002
}
1040
0.2
1000

1040
0.0
1002
{
1002
}
1040
0.0
1002
{
1002
}
1040
0.0
1002
}
1002
{
1070
     0
1002
{
1070
     1
1002
{
1040
1.0
1040
1.0
1000

1040
0.0
1002
{
1002
}
1040
0.0
1002
{
1002
}
1040
0.0
1002
}
1002
}
1040
1.0
1040
0.0
1040
0.0
1002
}
1002
{
1040
1.0
1040
1.0
1000

1040
0.0
1002
{
1002
}
1040
0.0
1002
{
1002
}
1040
0.0
1002
}
1002
{
1040
0.5
1040
1.0
1000

1040
0.0
1002
{
1002
}
1040
0.0
1002
{
1002
}
1040
0.0
1002
}
1002
{
1070
     0
1040
0.0
1002
{
1002
}
1040
1.0
1002
{
1002
}
1040
0.0
1002
}
1002
{
1040
0.0
1002
{
1002
{
1010
0.0
1020
0.0
1030
0.0
1002
}
1040
1.0
1000

1040
0.0
1002
{
1002
}
1040
0.0
1002
{
1002
}
1040
0.0
1002
}
1002
}
1002
{
1002
{
1070
     1
1002
{
1040
0.0
1040
1.0
1000

1040
0.0
1002
{
1002
}
1040
0.0
1002
{
1002
}
1040
0.0
1002
}
1002
}
1040
0.0
1002
{
1002
}
1010
1.0
1020
0.0
1030
0.0
1010
0.0
1020
1.0
1030
0.0
1010
0.0
1020
0.0
1030
1.0
1070
     0
1002
}
1002
{
1002
{
1040
1.0
1040
1.0
1002
{
1070
     1
1002
{
1040
1.0
1040
1.0
1000

1040
0.0
1002
{
1002
}
1040
0.0
1002
{
1002
}
1040
0.0
1002
}
1002
}
1002
}
1070
     0
1040
0.0
1002
{
1002
}
1002
}
1002
{
1002
}
1002
}
1002
{
1071
        3
1070
     3
1070
     0
1002
{
1070
     2
1070
     0
1070
     0
1040
0.0
1002
}
1070
     0
1070
     2
1002
{
1002
}
1002
}
1002
{
1040
8030.0
1040
190.300003
1040
0.305
1040
228.0
1040
545.0
1040
14.0
1040
17.4
1040
0.456
1002
}
1002
}
  0
LINE
  5
204
  8
STELTXT
 10
-263.63417
 20
694.647368
 30
0.0
 11
-573.182364
 21
186.309194
 31
0.0
  0
TEXT
  5
205
  8
STELTXT
 10
-1305.529786
 20
176.607653
 30
0.0
 40
25.0
  1
1 x 2" SIDE FACING FLOW FLANGE
  0
LINE
  5
206
  8
STELTXT
 10
-573.182364
 20
186.309194
 30
0.0
 11
-614.898786
 21
186.309194
 31
0.0
  0
TEXT
  5
208
  8
STELTXT
 10
1751.625024
 20
28.091082
 30
0.0
 40
25.0
  1
1 x 2" SIDE FACING RETURN TAPPING
  0
LINE
  5
209
  8
STELTXT
 10
977.547863
 20
694.647368
 30
0.0
 11
1376.332696
 21
39.765325
 31
0.0
  0
SOLID
  5
20A
  8
STELTXT
 10
973.989091
 20
692.480284
 30
0.0
 11
981.106635
 21
696.814452
 31
0.0
 12
964.54536
 22
716.0
 32
0.0
 13
964.54536
 23
716.0
 33
0.0
  0
LINE
  5
20B
  8
STELTXT
 10
1376.332696
 20
39.765325
 30
0.0
 11
1722.898786
 21
39.765325
 31
0.0
  0
LINE
  5
20C
  8
STELTXT
 10
130.452137
 20
694.647368
 30
0.0
 11
-268.332696
 21
39.765325
 31
0.0
  0
SOLID
  5
20D
  8
STELTXT
 10
134.010909
 20
692.480284
 30
0.0
 11
126.893365
 21
696.814452
 31
0.0
 12
143.45464
 22
716.0
 32
0.0
 13
143.45464
 23
716.0
 33
0.0
  0
TEXT
  5
20E
  8
STELTXT
 10
-1372.196453
 20
28.091082
 30
0.0
 40
25.0
  1
1 x 2" SIDE FACING RETURN TAPPING
  0
LINE
  5
20F
  8
STELTXT
 10
-268.332696
 20
39.765325
 30
0.0
 11
-614.898786
 21
39.765325
 31
0.0
  0
LINE
  5
212
  8
DETAIL
 10
507.0
 20
-50.0
 30
0.0
 11
1107.0
 21
-50.0
 31
0.0
  0
LINE
  5
213
  8
DETAIL
 10
507.0
 20
0.0
 30
0.0
 11
507.0
 21
-50.0
 31
0.0
  0
TEXT
  5
214
  8
STELTXT
 10
1747.99171
 20
-43.676513
 30
0.0
 40
25.0
  1
OVERHANGING CONTROL PANEL
  0
LINE
  5
215
  8
STELTXT
 10
1144.727859
 20
-31.940758
 30
0.0
 11
1719.645365
 21
-31.487688
 31
0.0
  0
SOLID
  5
216
  8
STELTXT
 10
1144.731143
 20
-36.107423
 30
0.0
 11
1144.724576
 21
-27.774093
 31
0.0
 12
1119.727867
 22
-31.960459
 32
0.0
 13
1119.727867
 23
-31.960459
 33
0.0
  0
LINE
  5
217
  8
CENTER
  6
CENTER
 10
1061.052666
 20
716.0
 30
0.0
 11
1451.530199
 21
716.0
 31
0.0
  0
LINE
  5
218
  8
DIMFLHDR
 10
1425.912461
 20
801.0
 30
0.0
 11
1660.167115
 21
801.0
 31
0.0
  0
LINE
  5
219
  8
DIMENSIONS
 10
1172.359108
 20
838.0
 30
0.0
 11
1448.0
 21
838.0
 31
0.0
  0
ATTDEF
  5
294
  8
STELATT
 10
487.072358
 20
-544.324227
 30
0.0
 40
40.0
  1
CXSi 110
 72
     4
 11
580.405691
 21
-524.324227
 31
0.0
  3

  2
MODEL
 70
     2
  0
ATTDEF
  5
295
  8
STELATT
 10
488.264372
 20
-474.324227
 30
0.0
 40
40.0
  1
CONCORD 
 72
     4
 11
556.835801
 21
-454.324227
 31
0.0
  3

  2
TYPE
 70
     2
  0
ATTDEF
  5
296
  8
STELATT
 10
328.216444
 20
-404.324227
 30
0.0
 40
40.0
  1
IDEAL
 72
     4
 11
561.549777
 21
-384.324227
 31
0.0
  3

  2
MANUFACTURER
 70
     2
  0
SOLID
  5
338
  8
STELTXT
 10
-260.075398
 20
692.480284
 30
0.0
 11
-267.192942
 21
696.814452
 31
0.0
 12
-250.631666
 22
716.0
 32
0.0
 13
-250.631666
 23
716.0
 33
0.0
  0
LINE
  5
34B
  8
FLHDRTXT
 10
1272.525181
 20
572.086843
 30
0.0
 11
1918.280288
 21
572.086843
 31
0.0
  0
LINE
  5
34C
  8
FLHDRTXT
 10
1378.0
 20
651.760039
 30
0.0
 11
1897.212684
 21
651.760039
 31
0.0
  0
LINE
  5
34D
  8
FLHDRTXT
 10
1177.5
 20
410.94662
 30
0.0
 11
1789.085123
 21
410.94662
 31
0.0
  0
LINE
  5
34E
  8
FLHDR
 10
1334.0
 20
756.0
 30
0.0
 11
1145.0
 21
756.0
 31
0.0
  0
LINE
  5
34F
  8
FLHDR
 10
1273.973214
 20
698.5
 30
0.0
 11
1176.5
 21
698.5
 31
0.0
  0
LINE
  5
350
  8
FLHDR
 10
1273.973214
 20
733.5
 30
0.0
 11
1176.5
 21
733.5
 31
0.0
  0
LINE
  5
351
  8
FLHDR
 10
1334.0
 20
676.0
 30
0.0
 11
1145.0
 21
676.0
 31
0.0
  0
LINE
  5
352
  8
FLHDRTXT
 10
1177.5
 20
684.65
 30
0.0
 11
1177.5
 21
410.94662
 31
0.0
  0
ARC
  5
353
  8
FLHDR
 10
1176.5
 20
716.0
 30
0.0
 40
17.5
 50
90.0
 51
270.0
  0
LINE
  5
354
  8
FLHDR
 10
1137.0
 20
760.0
 30
0.0
 11
1137.0
 21
672.0
 31
0.0
  0
LINE
  5
355
  8
FLHDR
 10
1137.0
 20
676.0
 30
0.0
 11
1107.0
 21
676.0
 31
0.0
  0
SOLID
  5
356
  8
FLHDRTXT
 10
1181.666667
 20
684.65
 30
0.0
 11
1173.333333
 21
684.65
 31
0.0
 12
1177.5
 22
709.65
 32
0.0
 13
1177.5
 23
709.65
 33
0.0
  0
LINE
  5
357
  8
FLHDR
 10
1141.0
 20
672.0
 30
0.0
 11
1145.0
 21
676.0
 31
0.0
  0
LINE
  5
358
  8
FLHDR
 10
1141.0
 20
672.0
 30
0.0
 11
1137.0
 21
672.0
 31
0.0
  0
CIRCLE
  5
359
  8
FLHDR
 10
1176.5
 20
716.0
 30
0.0
 40
6.35
  0
LINE
  5
35A
  8
FLHDR
 10
1137.0
 20
756.0
 30
0.0
 11
1107.0
 21
756.0
 31
0.0
  0
LINE
  5
35B
  8
FLHDR
 10
1141.0
 20
760.0
 30
0.0
 11
1145.0
 21
756.0
 31
0.0
  0
LINE
  5
35C
  8
FLHDR
 10
1141.0
 20
760.0
 30
0.0
 11
1137.0
 21
760.0
 31
0.0
  0
SOLID
  5
35D
  8
FLHDRTXT
 10
1378.0
 20
655.926705
 30
0.0
 11
1378.0
 21
647.593372
 31
0.0
 12
1353.0
 22
651.760039
 32
0.0
 13
1353.0
 23
651.760039
 33
0.0
  0
LINE
  5
35E
  8
FLHDRTXT
 10
1224.981112
 20
684.65
 30
0.0
 11
1224.981112
 21
491.516731
 31
0.0
  0
LINE
  5
35F
  8
FLHDRTXT
 10
1272.525181
 20
698.5
 30
0.0
 11
1272.525181
 21
572.086843
 31
0.0
  0
LINE
  5
360
  8
FLHDR
 10
1334.0
 20
801.0
 30
0.0
 11
1334.0
 21
631.0
 31
0.0
  0
LINE
  5
361
  8
FLHDR
 10
1352.0
 20
801.0
 30
0.0
 11
1352.0
 21
631.0
 31
0.0
  0
LINE
  5
362
  8
FLHDRTXT
 10
1224.981112
 20
491.516731
 30
0.0
 11
1723.792943
 21
491.516731
 31
0.0
  0
LINE
  5
363
  8
FLHDR
 10
1352.0
 20
631.0
 30
0.0
 11
1334.0
 21
631.0
 31
0.0
  0
ARC
  5
364
  8
FLHDR
 10
1273.973214
 20
716.0
 30
0.0
 40
17.5
 50
270.0
 51
90.0
  0
SOLID
  5
365
  8
FLHDRTXT
 10
1228.479399
 20
684.65
 30
0.0
 11
1220.146066
 21
684.65
 31
0.0
 12
1224.312733
 22
709.65
 32
0.0
 13
1224.312733
 23
709.65
 33
0.0
  0
CIRCLE
  5
366
  8
FLHDR
 10
1223.312733
 20
716.0
 30
0.0
 40
6.35
  0
SOLID
  5
367
  8
FLHDRTXT
 10
1277.128841
 20
682.841162
 30
0.0
 11
1268.795508
 21
682.841162
 31
0.0
 12
1272.962174
 22
707.841162
 32
0.0
 13
1272.962174
 23
707.841162
 33
0.0
  0
CIRCLE
  5
368
  8
FLHDR
 10
1273.973214
 20
716.0
 30
0.0
 40
6.35
  0
LINE
  5
369
  8
FLHDR
 10
1352.0
 20
801.0
 30
0.0
 11
1334.0
 21
801.0
 31
0.0
  0
TEXT
  5
36A
  8
FLHDRTXT
 10
1926.296695
 20
638.11954
 30
0.0
 40
25.0
  1
2" FLANGED OUTLET BSP
  0
TEXT
  5
36B
  8
FLHDRTXT
 10
1942.963362
 20
558.11954
 30
0.0
 40
25.0
  1
  " BSP FOR OPEN VENT
  0
TEXT
  5
36C
  8
FLHDRTXT
 10
1816.772886
 20
398.11954
 30
0.0
 40
25.0
  1
  " BSP FOR PRESSURE GAUGE
  0
TEXT
  5
36D
  8
FLHDRTXT
 10
1745.344314
 20
478.11954
 30
0.0
 40
25.0
  1
  " BSP FOR THERMOSTAT POCKET
  0
TEXT
  5
36E
  8
FLHDRTXT
 10
1849.781654
 20
397.873504
 30
0.0
 40
15.0
  1
2
  0
TEXT
  5
36F
  8
FLHDRTXT
 10
1831.008256
 20
406.687654
 30
0.0
 40
15.0
  1
1
  0
TEXT
  5
370
  8
FLHDRTXT
 10
1837.788839
 20
400.58555
 30
0.0
 40
15.0
  1
/
  0
TEXT
  5
371
  8
FLHDRTXT
 10
1783.054728
 20
477.873504
 30
0.0
 40
15.0
  1
2
  0
TEXT
  5
372
  8
FLHDRTXT
 10
1764.281329
 20
486.687654
 30
0.0
 40
15.0
  1
1
  0
TEXT
  5
373
  8
FLHDRTXT
 10
1771.061912
 20
480.58555
 30
0.0
 40
15.0
  1
/
  0
TEXT
  5
374
  8
FLHDRTXT
 10
1956.073998
 20
566.687654
 30
0.0
 40
15.0
  1
1
  0
TEXT
  5
375
  8
FLHDRTXT
 10
1962.85458
 20
560.58555
 30
0.0
 40
15.0
  1
/
  0
TEXT
  5
376
  8
FLHDRTXT
 10
1974.847396
 20
557.873504
 30
0.0
 40
15.0
  1
2
  0
LINE
  5
377
  8
FLHDLTXT
 10
-270.0
 20
651.760039
 30
0.0
 11
-644.212684
 21
651.760039
 31
0.0
  0
LINE
  5
378
  8
FLHDLTXT
 10
-164.873172
 20
572.086843
 30
0.0
 11
-665.280288
 21
572.086843
 31
0.0
  0
LINE
  5
379
  8
FLHDLTXT
 10
-69.5
 20
410.94662
 30
0.0
 11
-536.085123
 21
410.94662
 31
0.0
  0
TEXT
  5
37A
  8
FLHDLTXT
 10
-1175.677648
 20
478.11954
 30
0.0
 40
25.0
  1
  " BSP FOR THERMOSTAT POCKET
  0
TEXT
  5
37B
  8
FLHDLTXT
 10
-1162.834859
 20
638.11954
 30
0.0
 40
25.0
  1
2" FLANGED OUTLET BSP
  0
TEXT
  5
37C
  8
FLHDLTXT
 10
-1175.677648
 20
558.11954
 30
0.0
 40
25.0
  1
  " BSP FOR OPEN VENT
  0
TEXT
  5
37D
  8
FLHDLTXT
 10
-1175.677648
 20
398.11954
 30
0.0
 40
25.0
  1
  " BSP FOR PRESSURE GAUGE
  0
TEXT
  5
37E
  8
FLHDLTXT
 10
-1141.647243
 20
397.873504
 30
0.0
 40
15.0
  1
2
  0
TEXT
  5
37F
  8
FLHDLTXT
 10
-1160.420641
 20
406.687654
 30
0.0
 40
15.0
  1
1
  0
TEXT
  5
380
  8
FLHDLTXT
 10
-1153.640058
 20
400.58555
 30
0.0
 40
15.0
  1
/
  0
TEXT
  5
381
  8
FLHDLTXT
 10
-1141.647243
 20
477.873504
 30
0.0
 40
15.0
  1
2
  0
TEXT
  5
382
  8
FLHDLTXT
 10
-1160.420641
 20
486.687654
 30
0.0
 40
15.0
  1
1
  0
TEXT
  5
383
  8
FLHDLTXT
 10
-1153.640058
 20
480.58555
 30
0.0
 40
15.0
  1
/
  0
TEXT
  5
384
  8
FLHDLTXT
 10
-1160.420641
 20
566.687654
 30
0.0
 40
15.0
  1
1
  0
TEXT
  5
385
  8
FLHDLTXT
 10
-1153.640058
 20
560.58555
 30
0.0
 40
15.0
  1
/
  0
TEXT
  5
386
  8
FLHDLTXT
 10
-1141.647243
 20
557.873504
 30
0.0
 40
15.0
  1
2
  0
SOLID
  5
387
  8
FLHDLTXT
 10
-270.0
 20
655.926705
 30
0.0
 11
-270.0
 21
647.593372
 31
0.0
 12
-245.0
 22
651.760039
 32
0.0
 13
-245.0
 23
651.760039
 33
0.0
  0
LINE
  5
388
  8
FLHDLTXT
 10
-69.5
 20
684.65
 30
0.0
 11
-69.5
 21
410.94662
 31
0.0
  0
LINE
  5
389
  8
FLHDLTXT
 10
-116.3763
 20
698.5
 30
0.0
 11
-116.3763
 21
491.516731
 31
0.0
  0
LINE
  5
38A
  8
FLHDLTXT
 10
-164.873172
 20
698.5
 30
0.0
 11
-164.873172
 21
572.086843
 31
0.0
  0
LINE
  5
38B
  8
FLHDL
 10
-244.0
 20
801.0
 30
0.0
 11
-244.0
 21
631.0
 31
0.0
  0
LINE
  5
38C
  8
FLHDL
 10
-226.0
 20
801.0
 30
0.0
 11
-226.0
 21
631.0
 31
0.0
  0
LINE
  5
38D
  8
FLHDLTXT
 10
-116.3763
 20
491.516731
 30
0.0
 11
-470.792943
 21
491.516731
 31
0.0
  0
LINE
  5
38E
  8
FLHDL
 10
-244.0
 20
631.0
 30
0.0
 11
-226.0
 21
631.0
 31
0.0
  0
LINE
  5
38F
  8
FLHDL
 10
-226.0
 20
756.0
 30
0.0
 11
-37.0
 21
756.0
 31
0.0
  0
LINE
  5
390
  8
FLHDL
 10
-226.0
 20
676.0
 30
0.0
 11
-37.0
 21
676.0
 31
0.0
  0
LINE
  5
391
  8
FLHDL
 10
-244.0
 20
801.0
 30
0.0
 11
-226.0
 21
801.0
 31
0.0
  0
LINE
  5
392
  8
FLHDL
 10
-165.973214
 20
733.5
 30
0.0
 11
-68.5
 21
733.5
 31
0.0
  0
LINE
  5
393
  8
FLHDL
 10
-165.973214
 20
698.5
 30
0.0
 11
-68.5
 21
698.5
 31
0.0
  0
ARC
  5
394
  8
FLHDL
 10
-165.973214
 20
716.0
 30
0.0
 40
17.5
 50
90.0
 51
270.0
  0
SOLID
  5
395
  8
FLHDRTXT
 10
-169.128841
 20
682.841162
 30
0.0
 11
-160.795508
 21
682.841162
 31
0.0
 12
-164.962174
 22
707.841162
 32
0.0
 13
-164.962174
 23
707.841162
 33
0.0
  0
CIRCLE
  5
396
  8
FLHDL
 10
-165.973214
 20
716.0
 30
0.0
 40
6.35
  0
SOLID
  5
397
  8
FLHDRTXT
 10
-120.479399
 20
684.65
 30
0.0
 11
-112.146066
 21
684.65
 31
0.0
 12
-116.312733
 22
709.65
 32
0.0
 13
-116.312733
 23
709.65
 33
0.0
  0
CIRCLE
  5
398
  8
FLHDL
 10
-115.312733
 20
716.0
 30
0.0
 40
6.35
  0
ARC
  5
399
  8
FLHDL
 10
-68.5
 20
716.0
 30
0.0
 40
17.5
 50
270.0
 51
90.0
  0
LINE
  5
39A
  8
FLHDL
 10
-29.0
 20
760.0
 30
0.0
 11
-29.0
 21
672.0
 31
0.0
  0
LINE
  5
39B
  8
FLHDL
 10
-29.0
 20
676.0
 30
0.0
 11
1.0
 21
676.0
 31
0.0
  0
SOLID
  5
39C
  8
FLHDRTXT
 10
-73.666667
 20
684.65
 30
0.0
 11
-65.333333
 21
684.65
 31
0.0
 12
-69.5
 22
709.65
 32
0.0
 13
-69.5
 23
709.65
 33
0.0
  0
LINE
  5
39D
  8
FLHDL
 10
-33.0
 20
672.0
 30
0.0
 11
-29.0
 21
672.0
 31
0.0
  0
LINE
  5
39E
  8
FLHDL
 10
-33.0
 20
672.0
 30
0.0
 11
-37.0
 21
676.0
 31
0.0
  0
CIRCLE
  5
39F
  8
FLHDL
 10
-68.5
 20
716.0
 30
0.0
 40
6.35
  0
LINE
  5
3A0
  8
FLHDL
 10
-29.0
 20
756.0
 30
0.0
 11
1.0
 21
756.0
 31
0.0
  0
LINE
  5
3A1
  8
FLHDL
 10
-33.0
 20
760.0
 30
0.0
 11
-29.0
 21
760.0
 31
0.0
  0
LINE
  5
3A2
  8
FLHDL
 10
-33.0
 20
760.0
 30
0.0
 11
-37.0
 21
756.0
 31
0.0
  0
LINE
  5
3AE
  8
DIMENSIONS
 10
732.0
 20
861.0
 30
0.0
 11
1345.292782
 21
861.0
 31
0.0
  0
ENDSEC
  0
EOF
