  0
SECTION
  2
HEADER
  9
$ACADVER
  1
AC1009
  9
$INSBASE
 10
165.286676
 20
-165.286676
 30
0.0
  9
$EXTMIN
 10
-100.073648
 20
-544.420654
 30
0.0
  9
$EXTMAX
 10
1107.073686
 20
1036.096477
 30
0.0
  9
$LIMMIN
 10
0.0
 20
0.0
  9
$LIMMAX
 10
420.0
 20
297.0
  9
$ORTHOMODE
 70
     1
  9
$REGENMODE
 70
     1
  9
$FILLMODE
 70
     1
  9
$QTEXTMODE
 70
     0
  9
$MIRRTEXT
 70
     0
  9
$DRAGMODE
 70
     2
  9
$LTSCALE
 40
25.0
  9
$OSMODE
 70
     0
  9
$ATTMODE
 70
     1
  9
$TEXTSIZE
 40
3.0
  9
$TRACEWID
 40
10.0
  9
$TEXTSTYLE
  7
STANDARD
  9
$CLAYER
  8
0
  9
$CELTYPE
  6
BYLAYER
  9
$CECOLOR
 62
   256
  9
$DIMSCALE
 40
1.0
  9
$DIMASZ
 40
25.0
  9
$DIMEXO
 40
15.0
  9
$DIMDLI
 40
10.0
  9
$DIMRND
 40
0.0
  9
$DIMDLE
 40
1.25
  9
$DIMEXE
 40
15.0
  9
$DIMTP
 40
0.0
  9
$DIMTM
 40
0.0
  9
$DIMTXT
 40
25.0
  9
$DIMCEN
 40
-3.0
  9
$DIMTSZ
 40
0.0
  9
$DIMTOL
 70
     0
  9
$DIMLIM
 70
     0
  9
$DIMTIH
 70
     0
  9
$DIMTOH
 70
     0
  9
$DIMSE1
 70
     0
  9
$DIMSE2
 70
     0
  9
$DIMTAD
 70
     0
  9
$DIMZIN
 70
     1
  9
$DIMBLK
  1

  9
$DIMASO
 70
     0
  9
$DIMSHO
 70
     0
  9
$DIMPOST
  1

  9
$DIMAPOST
  1

  9
$DIMALT
 70
     0
  9
$DIMALTD
 70
     2
  9
$DIMALTF
 40
0.039
  9
$DIMLFAC
 40
1.0
  9
$DIMTOFL
 70
     0
  9
$DIMTVP
 40
1.5
  9
$DIMTIX
 70
     0
  9
$DIMSOXD
 70
     0
  9
$DIMSAH
 70
     0
  9
$DIMBLK1
  1

  9
$DIMBLK2
  1

  9
$DIMSTYLE
  2
-
  9
$DIMCLRD
 70
     0
  9
$DIMCLRE
 70
     0
  9
$DIMCLRT
 70
     0
  9
$DIMTFAC
 40
1.0
  9
$DIMGAP
 40
0.09
  9
$LUNITS
 70
     2
  9
$LUPREC
 70
     2
  9
$SKETCHINC
 40
10.0
  9
$FILLETRAD
 40
0.0
  9
$AUNITS
 70
     0
  9
$AUPREC
 70
     4
  9
$MENU
  1
acad
  9
$ELEVATION
 40
0.0
  9
$PELEVATION
 40
0.0
  9
$THICKNESS
 40
0.0
  9
$LIMCHECK
 70
     0
  9
$BLIPMODE
 70
     0
  9
$CHAMFERA
 40
0.0
  9
$CHAMFERB
 40
0.0
  9
$SKPOLY
 70
     1
  9
$TDCREATE
 40
2450098.618908
  9
$TDUPDATE
 40
2453073.533332
  9
$TDINDWG
 40
0.056323
  9
$TDUSRTIMER
 40
0.056323
  9
$USRTIMER
 70
     1
  9
$ANGBASE
 50
0.0
  9
$ANGDIR
 70
     0
  9
$PDMODE
 70
     3
  9
$PDSIZE
 40
0.0
  9
$PLINEWID
 40
0.0
  9
$COORDS
 70
     1
  9
$SPLFRAME
 70
     0
  9
$SPLINETYPE
 70
     6
  9
$SPLINESEGS
 70
     6
  9
$ATTDIA
 70
     0
  9
$ATTREQ
 70
     1
  9
$HANDLING
 70
 22529
  9
$HANDSEED
  5
3AF
  9
$SURFTAB1
 70
    12
  9
$SURFTAB2
 70
    12
  9
$SURFTYPE
 70
     6
  9
$SURFU
 70
    12
  9
$SURFV
 70
    12
  9
$UCSNAME
  2

  9
$UCSORG
 10
0.0
 20
0.0
 30
0.0
  9
$UCSXDIR
 10
1.0
 20
0.0
 30
0.0
  9
$UCSYDIR
 10
0.0
 20
1.0
 30
0.0
  9
$PUCSNAME
  2

  9
$PUCSORG
 10
0.0
 20
0.0
 30
0.0
  9
$PUCSXDIR
 10
1.0
 20
0.0
 30
0.0
  9
$PUCSYDIR
 10
0.0
 20
1.0
 30
0.0
  9
$USERI1
 70
     0
  9
$USERI2
 70
     0
  9
$USERI3
 70
     0
  9
$USERI4
 70
     0
  9
$USERI5
 70
     0
  9
$USERR1
 40
0.0
  9
$USERR2
 40
0.0
  9
$USERR3
 40
0.0
  9
$USERR4
 40
0.0
  9
$USERR5
 40
0.0
  9
$WORLDVIEW
 70
     0
  9
$SHADEDGE
 70
     3
  9
$SHADEDIF
 70
    70
  9
$TILEMODE
 70
     1
  9
$MAXACTVP
 70
    16
  9
$PLIMCHECK
 70
     0
  9
$PEXTMIN
 10
1.000000E+020
 20
1.000000E+020
 30
1.000000E+020
  9
$PEXTMAX
 10
-1.000000E+020
 20
-1.000000E+020
 30
-1.000000E+020
  9
$PLIMMIN
 10
0.0
 20
0.0
  9
$PLIMMAX
 10
12.0
 20
9.0
  9
$UNITMODE
 70
     0
  9
$VISRETAIN
 70
     0
  9
$PLINEGEN
 70
     0
  9
$PSLTSCALE
 70
     0
  0
ENDSEC
  0
SECTION
  2
TABLES
  0
TABLE
  2
VPORT
 70
     2
  0
VPORT
  2
*ACTIVE
 70
     0
 10
0.0
 20
0.0
 11
1.0
 21
1.0
 12
503.500019
 22
245.837911
 13
0.0
 23
0.0
 14
1000.0
 24
1000.0
 15
0.0
 25
0.0
 16
0.0
 26
0.0
 36
1.0
 17
0.0
 27
0.0
 37
0.0
 40
1598.718863
 41
1.825
 42
50.0
 43
0.0
 44
0.0
 50
0.0
 51
0.0
 71
     0
 72
  2000
 73
     1
 74
     2
 75
     0
 76
     0
 77
     0
 78
     0
  0
ENDTAB
  0
TABLE
  2
LTYPE
 70
     3
  0
LTYPE
  2
CONTINUOUS
 70
     0
  3
Solid line
 72
    65
 73
     0
 40
0.0
  0
LTYPE
  2
CENTER
 70
     0
  3
____ _ ____ _ ____ _ ____ _ ____ _ ____ _ ____
 72
    65
 73
     4
 40
2.0
 49
1.25
 49
-0.25
 49
0.25
 49
-0.25
  0
LTYPE
  2
DASHED
 70
     0
  3
__ __ __ __ __ __ __ __ __ __ __ __ __ __ __
 72
    65
 73
     2
 40
0.75
 49
0.5
 49
-0.25
  0
ENDTAB
  0
TABLE
  2
LAYER
 70
    14
  0
LAYER
  2
0
 70
     0
 62
     7
  6
CONTINUOUS
  0
LAYER
  2
DETAIL
 70
     0
 62
     2
  6
CONTINUOUS
  0
LAYER
  2
DIMENSIONS
 70
     1
 62
     7
  6
CONTINUOUS
  0
LAYER
  2
CENTER
 70
     1
 62
     4
  6
CENTER
  0
LAYER
  2
ORIGIN
 70
     0
 62
     6
  6
CONTINUOUS
  0
LAYER
  2
PLANNING
 70
     1
 62
     1
  6
DASHED
  0
LAYER
  2
STELTXT
 70
     1
 62
     4
  6
CONTINUOUS
  0
LAYER
  2
FLHDR
 70
     1
 62
     3
  6
CONTINUOUS
  0
LAYER
  2
FLHDL
 70
     1
 62
     3
  6
CONTINUOUS
  0
LAYER
  2
DIMFLHDL
 70
     1
 62
     7
  6
CONTINUOUS
  0
LAYER
  2
DIMFLHDR
 70
     1
 62
     7
  6
CONTINUOUS
  0
LAYER
  2
FLHDRTXT
 70
     1
 62
     3
  6
CONTINUOUS
  0
LAYER
  2
FLHDLTXT
 70
     1
 62
     3
  6
CONTINUOUS
  0
LAYER
  2
STELATT
 70
     0
 62
     7
  6
CONTINUOUS
  0
ENDTAB
  0
TABLE
  2
STYLE
 70
     1
  0
STYLE
  2
STANDARD
 70
     0
 40
0.0
 41
1.0
 50
0.0
 71
     0
 42
3.0
  3
simplex
  4

  0
ENDTAB
  0
TABLE
  2
VIEW
 70
     0
  0
ENDTAB
  0
TABLE
  2
UCS
 70
     0
  0
ENDTAB
  0
TABLE
  2
APPID
 70
     1
  0
APPID
  2
ACAD
 70
     0
  0
ENDTAB
  0
TABLE
  2
DIMSTYLE
 70
     1
  0
DIMSTYLE
  2
-
 70
     0
  3

  4

  5

  6

  7

 40
1.0
 41
0.18
 42
0.0625
 43
0.38
 44
0.18
 45
0.0
 46
0.0
 47
0.0
 48
0.0
140
0.18
141
0.09
142
0.0
143
25.4
144
1.0
145
0.0
146
1.0
147
0.09
 71
     0
 72
     0
 73
     1
 74
     1
 75
     0
 76
     0
 77
     0
 78
     0
170
     0
171
     2
172
     0
173
     0
174
     0
175
     0
176
     0
177
     0
178
     0
  0
ENDTAB
  0
ENDSEC
  0
SECTION
  2
BLOCKS
  0
BLOCK
  8
0
  2
$MODEL_SPACE
 70
     0
 10
0.0
 20
0.0
 30
0.0
  3
$MODEL_SPACE
  1

  0
ENDBLK
  5
247
  8
0
  0
BLOCK
 67
     1
  8
0
  2
$PAPER_SPACE
 70
     0
 10
0.0
 20
0.0
 30
0.0
  3
$PAPER_SPACE
  1

  0
ENDBLK
  5
245
 67
     1
  8
0
  0
ENDSEC
  0
SECTION
  2
ENTITIES
  0
LINE
  5
35
  8
PLANNING
 10
-100.0
 20
1236.0
 30
0.0
 11
-100.0
 21
-750.0
 31
0.0
  0
LINE
  5
36
  8
PLANNING
 10
1207.0
 20
1236.0
 30
0.0
 11
1207.0
 21
-750.0
 31
0.0
  0
LINE
  5
37
  8
PLANNING
 10
-100.0
 20
1236.0
 30
0.0
 11
1207.0
 21
1236.0
 31
0.0
  0
LINE
  5
38
  8
PLANNING
 10
-100.0
 20
-750.0
 30
0.0
 11
1207.0
 21
-750.0
 31
0.0
  0
TEXT
  5
40
  8
DIMENSIONS
 10
514.214286
 20
-200.0
 30
0.0
 40
25.0
  1
1107
  0
SOLID
  5
41
  8
DIMENSIONS
 10
1082.0
 20
-229.166667
 30
0.0
 11
1082.0
 21
-220.833333
 31
0.0
 12
1107.0
 22
-225.0
 32
0.0
 13
1107.0
 23
-225.0
 33
0.0
  0
SOLID
  5
42
  8
DIMENSIONS
 10
25.0
 20
-229.166667
 30
0.0
 11
25.0
 21
-220.833333
 31
0.0
 12
0.0
 22
-225.0
 32
0.0
 13
0.0
 23
-225.0
 33
0.0
  0
LINE
  5
43
  8
DIMENSIONS
 10
25.0
 20
-225.0
 30
0.0
 11
1082.0
 21
-225.0
 31
0.0
  0
LINE
  5
44
  8
DIMENSIONS
 10
1107.0
 20
-15.0
 30
0.0
 11
1107.0
 21
-240.0
 31
0.0
  0
LINE
  5
45
  8
DIMENSIONS
 10
0.0
 20
-15.0
 30
0.0
 11
0.0
 21
-240.0
 31
0.0
  0
LINE
  5
46
  8
DIMENSIONS
 10
962.0
 20
626.0
 30
0.0
 11
962.0
 21
-140.0
 31
0.0
  0
LINE
  5
47
  8
DIMENSIONS
 10
171.0
 20
-125.0
 30
0.0
 11
937.0
 21
-125.0
 31
0.0
  0
SOLID
  5
48
  8
DIMENSIONS
 10
171.0
 20
-129.166667
 30
0.0
 11
171.0
 21
-120.833333
 31
0.0
 12
146.0
 22
-125.0
 32
0.0
 13
146.0
 23
-125.0
 33
0.0
  0
SOLID
  5
49
  8
DIMENSIONS
 10
937.0
 20
-129.166667
 30
0.0
 11
937.0
 21
-120.833333
 31
0.0
 12
962.0
 22
-125.0
 32
0.0
 13
962.0
 23
-125.0
 33
0.0
  0
TEXT
  5
4A
  8
DIMENSIONS
 10
524.833333
 20
-100.0
 30
0.0
 40
25.0
  1
816
  0
LINE
  5
4B
  8
DIMENSIONS
 10
146.0
 20
626.0
 30
0.0
 11
146.0
 21
-140.0
 31
0.0
  0
LINE
  5
4C
  8
CENTER
 10
962.0
 20
791.0
 30
0.0
 11
962.0
 21
641.0
 31
0.0
  0
LINE
  5
4D
  8
CENTER
 10
1037.0
 20
716.0
 30
0.0
 11
887.0
 21
716.0
 31
0.0
  0
LINE
  5
4E
  8
CENTER
 10
146.0
 20
791.0
 30
0.0
 11
146.0
 21
641.0
 31
0.0
  0
LINE
  5
4F
  8
CENTER
 10
221.0
 20
716.0
 30
0.0
 11
-342.884427
 21
716.0
 31
0.0
  0
POLYLINE
  5
50
  8
ORIGIN
 66
     1
 10
0.0
 20
0.0
 30
0.0
  0
VERTEX
  5
3A6
  8
ORIGIN
 10
0.0
 20
0.0
 30
0.0
  0
VERTEX
  5
3A7
  8
ORIGIN
 10
-100.0
 20
-100.0
 30
0.0
  0
VERTEX
  5
3A8
  8
ORIGIN
 10
-100.0
 20
100.0
 30
0.0
  0
VERTEX
  5
3A9
  8
ORIGIN
 10
100.0
 20
-100.0
 30
0.0
  0
VERTEX
  5
3AA
  8
ORIGIN
 10
100.0
 20
100.0
 30
0.0
  0
VERTEX
  5
3AB
  8
ORIGIN
 10
0.0
 20
0.0
 30
0.0
  0
SEQEND
  5
3AC
  8
ORIGIN
  0
TEXT
  5
5C
  8
DIMENSIONS
 10
1552.0
 20
437.714286
 30
0.0
 40
25.0
  1
1036
 50
90.0
  0
SOLID
  5
5D
  8
DIMENSIONS
 10
1581.166667
 20
1011.0
 30
0.0
 11
1572.833333
 21
1011.0
 31
0.0
 12
1577.0
 22
1036.0
 32
0.0
 13
1577.0
 23
1036.0
 33
0.0
  0
SOLID
  5
5E
  8
DIMENSIONS
 10
1581.166667
 20
25.0
 30
0.0
 11
1572.833333
 21
25.0
 31
0.0
 12
1577.0
 22
0.0
 32
0.0
 13
1577.0
 23
0.0
 33
0.0
  0
LINE
  5
5F
  8
DIMENSIONS
 10
1577.0
 20
25.0
 30
0.0
 11
1577.0
 21
1011.0
 31
0.0
  0
LINE
  5
60
  8
DIMENSIONS
 10
1592.0
 20
1036.0
 30
0.0
 11
1592.0
 21
1036.0
 31
0.0
  0
LINE
  5
61
  8
DIMENSIONS
 10
1122.0
 20
0.0
 30
0.0
 11
1592.0
 21
0.0
 31
0.0
  0
LINE
  5
69
  8
DIMENSIONS
 10
-310.0
 20
716.0
 30
0.0
 11
-310.0
 21
716.0
 31
0.0
  0
LINE
  5
6B
  8
DETAIL
 10
146.0
 20
1036.0
 30
0.0
 11
146.0
 21
811.5
 31
0.0
  0
LINE
  5
6C
  8
DETAIL
 10
962.0
 20
1036.0
 30
0.0
 11
962.0
 21
811.5
 31
0.0
  0
TEXT
  5
6D
  8
DIMENSIONS
 10
1307.0
 20
918.738095
 30
0.0
 40
25.0
  1
175
 50
90.0
  0
SOLID
  5
6E
  8
DIMENSIONS
 10
1336.166667
 20
886.0
 30
0.0
 11
1327.833333
 21
886.0
 31
0.0
 12
1332.0
 22
861.0
 32
0.0
 13
1332.0
 23
861.0
 33
0.0
  0
SOLID
  5
6F
  8
DIMENSIONS
 10
1336.166667
 20
1011.0
 30
0.0
 11
1327.833333
 21
1011.0
 31
0.0
 12
1332.0
 22
1036.0
 32
0.0
 13
1332.0
 23
1036.0
 33
0.0
  0
LINE
  5
70
  8
DIMENSIONS
 10
1332.0
 20
1011.0
 30
0.0
 11
1332.0
 21
886.0
 31
0.0
  0
LINE
  5
71
  8
DIMENSIONS
 10
747.0
 20
861.0
 30
0.0
 11
1347.0
 21
861.0
 31
0.0
  0
LINE
  5
72
  8
CENTER
 10
732.0
 20
861.0
 30
0.0
 11
376.0
 21
861.0
 31
0.0
  0
LINE
  5
73
  8
CENTER
 10
554.0
 20
1039.0
 30
0.0
 11
554.0
 21
686.0
 31
0.0
  0
LINE
  5
81
  8
DIMENSIONS
 10
458.551529
 20
-50.0
 30
0.0
 11
-340.0
 21
-50.0
 31
0.0
  0
TEXT
  5
82
  8
DIMENSIONS
 10
-350.0
 20
309.857143
 30
0.0
 40
25.0
  1
766
 50
90.0
  0
SOLID
  5
83
  8
DIMENSIONS
 10
-320.833333
 20
691.0
 30
0.0
 11
-329.166667
 21
691.0
 31
0.0
 12
-325.0
 22
716.0
 32
0.0
 13
-325.0
 23
716.0
 33
0.0
  0
SOLID
  5
84
  8
DIMENSIONS
 10
-320.833333
 20
-25.0
 30
0.0
 11
-329.166667
 21
-25.0
 31
0.0
 12
-325.0
 22
-50.0
 32
0.0
 13
-325.0
 23
-50.0
 33
0.0
  0
LINE
  5
85
  8
DIMENSIONS
 10
-325.0
 20
-25.0
 30
0.0
 11
-325.0
 21
691.0
 31
0.0
  0
LINE
  5
86
  8
DIMENSIONS
 10
-338.005383
 20
716.0
 30
0.0
 11
-340.0
 21
716.0
 31
0.0
  0
LINE
  5
87
  8
DIMENSIONS
 10
-15.0
 20
-50.0
 30
0.0
 11
-340.0
 21
-50.0
 31
0.0
  0
LINE
  5
89
  8
DETAIL
 10
689.224813
 20
811.5
 30
0.0
 11
1107.0
 21
811.5
 31
0.0
  0
LINE
  5
8A
  8
DETAIL
 10
0.0
 20
811.5
 30
0.0
 11
418.775187
 21
811.5
 31
0.0
  0
CIRCLE
  5
8B
  8
DETAIL
 10
554.0
 20
861.0
 30
0.0
 40
144.0
  0
LINE
  5
8C
  8
DETAIL
 10
1107.0
 20
936.0
 30
0.0
 11
1107.0
 21
-50.0
 31
0.0
  0
LINE
  5
8D
  8
DETAIL
 10
0.0
 20
936.0
 30
0.0
 11
0.0
 21
0.0
 31
0.0
  0
LINE
  5
8E
  8
DETAIL
 10
146.0
 20
1036.0
 30
0.0
 11
962.0
 21
1036.0
 31
0.0
  0
LINE
  5
8F
  8
DETAIL
 10
0.0
 20
0.0
 30
0.0
 11
1107.0
 21
0.0
 31
0.0
  0
LINE
  5
BB
  8
FLHDLTXT
 10
-270.0
 20
651.760039
 30
0.0
 11
-644.212684
 21
651.760039
 31
0.0
  0
TEXT
  5
BF
  8
FLHDLTXT
 10
-1162.834859
 20
638.11954
 30
0.0
 40
25.0
  1
2" FLANGED OUTLET BSP
  0
LINE
  5
C0
  8
FLHDLTXT
 10
-69.5
 20
410.94662
 30
0.0
 11
-536.085123
 21
410.94662
 31
0.0
  0
LINE
  5
C1
  8
FLHDLTXT
 10
-116.3763
 20
491.516731
 30
0.0
 11
-470.792943
 21
491.516731
 31
0.0
  0
LINE
  5
C2
  8
FLHDLTXT
 10
-164.873172
 20
572.086843
 30
0.0
 11
-665.280288
 21
572.086843
 31
0.0
  0
TEXT
  5
C3
  8
FLHDLTXT
 10
-1160.420641
 20
406.687654
 30
0.0
 40
15.0
  1
1
  0
TEXT
  5
C4
  8
FLHDLTXT
 10
-1141.647243
 20
397.873504
 30
0.0
 40
15.0
  1
2
  0
TEXT
  5
C5
  8
FLHDLTXT
 10
-1153.640058
 20
400.58555
 30
0.0
 40
15.0
  1
/
  0
TEXT
  5
C6
  8
FLHDLTXT
 10
-1175.677648
 20
398.11954
 30
0.0
 40
25.0
  1
  " BSP FOR PRESSURE GAUGE
  0
TEXT
  5
C7
  8
FLHDLTXT
 10
-1175.677648
 20
478.11954
 30
0.0
 40
25.0
  1
  " BSP FOR THERMOSTAT POCKET
  0
TEXT
  5
C8
  8
FLHDLTXT
 10
-1153.640058
 20
480.58555
 30
0.0
 40
15.0
  1
/
  0
TEXT
  5
C9
  8
FLHDLTXT
 10
-1141.647243
 20
477.873504
 30
0.0
 40
15.0
  1
2
  0
TEXT
  5
CA
  8
FLHDLTXT
 10
-1160.420641
 20
486.687654
 30
0.0
 40
15.0
  1
1
  0
TEXT
  5
CB
  8
FLHDLTXT
 10
-1160.420641
 20
566.687654
 30
0.0
 40
15.0
  1
1
  0
TEXT
  5
CC
  8
FLHDLTXT
 10
-1141.647243
 20
557.873504
 30
0.0
 40
15.0
  1
2
  0
TEXT
  5
CD
  8
FLHDLTXT
 10
-1153.640058
 20
560.58555
 30
0.0
 40
15.0
  1
/
  0
TEXT
  5
CE
  8
FLHDLTXT
 10
-1175.677648
 20
558.11954
 30
0.0
 40
25.0
  1
  " BSP FOR OPEN VENT
  0
SOLID
  5
D5
  8
FLHDLTXT
 10
-270.0
 20
655.926705
 30
0.0
 11
-270.0
 21
647.593372
 31
0.0
 12
-245.0
 22
651.760039
 32
0.0
 13
-245.0
 23
651.760039
 33
0.0
  0
TEXT
  5
D6
  8
FLHDRTXT
 10
1942.963362
 20
558.11954
 30
0.0
 40
25.0
  1
  " BSP FOR OPEN VENT
  0
TEXT
  5
D7
  8
FLHDRTXT
 10
1962.85458
 20
560.58555
 30
0.0
 40
15.0
  1
/
  0
TEXT
  5
D8
  8
FLHDRTXT
 10
1974.847396
 20
557.873504
 30
0.0
 40
15.0
  1
2
  0
TEXT
  5
D9
  8
FLHDRTXT
 10
1956.073998
 20
566.687654
 30
0.0
 40
15.0
  1
1
  0
TEXT
  5
DA
  8
FLHDRTXT
 10
1764.281329
 20
486.687654
 30
0.0
 40
15.0
  1
1
  0
TEXT
  5
DB
  8
FLHDRTXT
 10
1783.054728
 20
477.873504
 30
0.0
 40
15.0
  1
2
  0
TEXT
  5
DC
  8
FLHDRTXT
 10
1771.061912
 20
480.58555
 30
0.0
 40
15.0
  1
/
  0
TEXT
  5
DD
  8
FLHDRTXT
 10
1745.344314
 20
478.11954
 30
0.0
 40
25.0
  1
  " BSP FOR THERMOSTAT POCKET
  0
TEXT
  5
DE
  8
FLHDRTXT
 10
1816.772886
 20
398.11954
 30
0.0
 40
25.0
  1
  " BSP FOR PRESSURE GAUGE
  0
TEXT
  5
DF
  8
FLHDRTXT
 10
1837.788839
 20
400.58555
 30
0.0
 40
15.0
  1
/
  0
TEXT
  5
E0
  8
FLHDRTXT
 10
1849.781654
 20
397.873504
 30
0.0
 40
15.0
  1
2
  0
TEXT
  5
E1
  8
FLHDRTXT
 10
1831.008256
 20
406.687654
 30
0.0
 40
15.0
  1
1
  0
LINE
  5
E2
  8
FLHDRTXT
 10
1272.525181
 20
572.086843
 30
0.0
 11
1918.280288
 21
572.086843
 31
0.0
  0
LINE
  5
E3
  8
FLHDRTXT
 10
1224.981112
 20
491.516731
 30
0.0
 11
1723.792943
 21
491.516731
 31
0.0
  0
LINE
  5
E4
  8
FLHDRTXT
 10
1177.5
 20
410.94662
 30
0.0
 11
1789.085123
 21
410.94662
 31
0.0
  0
TEXT
  5
E5
  8
FLHDRTXT
 10
1926.296695
 20
638.11954
 30
0.0
 40
25.0
  1
2" FLANGED OUTLET BSP
  0
LINE
  5
E9
  8
FLHDRTXT
 10
1378.0
 20
651.760039
 30
0.0
 11
1897.212684
 21
651.760039
 31
0.0
  0
LINE
  5
EA
  8
FLHDRTXT
 10
1177.5
 20
684.65
 30
0.0
 11
1177.5
 21
410.94662
 31
0.0
  0
LINE
  5
EB
  8
FLHDRTXT
 10
1224.981112
 20
684.65
 30
0.0
 11
1224.981112
 21
491.516731
 31
0.0
  0
LINE
  5
EC
  8
FLHDRTXT
 10
1272.525181
 20
698.5
 30
0.0
 11
1272.525181
 21
572.086843
 31
0.0
  0
SOLID
  5
F0
  8
FLHDRTXT
 10
1378.0
 20
655.926705
 30
0.0
 11
1378.0
 21
647.593372
 31
0.0
 12
1353.0
 22
651.760039
 32
0.0
 13
1353.0
 23
651.760039
 33
0.0
  0
TEXT
  5
F1
  8
STELTXT
 10
1019.09971
 20
1384.689384
 30
0.0
 40
25.0
  1
FLUE OUTLET
  0
LINE
  5
F2
  8
DIMFLHDR
 10
1367.0
 20
801.0
 30
0.0
 11
1385.143876
 21
801.0
 31
0.0
  0
LINE
  5
F3
  8
DIMFLHDR
 10
1367.0
 20
631.0
 30
0.0
 11
1557.586778
 21
631.0
 31
0.0
  0
LINE
  5
F4
  8
DIMFLHDR
 10
1542.586778
 20
776.0
 30
0.0
 11
1542.586778
 21
656.0
 31
0.0
  0
SOLID
  5
F5
  8
DIMFLHDR
 10
1546.753444
 20
776.0
 30
0.0
 11
1538.420111
 21
776.0
 31
0.0
 12
1542.586778
 22
801.0
 32
0.0
 13
1542.586778
 23
801.0
 33
0.0
  0
SOLID
  5
F6
  8
DIMFLHDR
 10
1546.753444
 20
656.0
 30
0.0
 11
1538.420111
 21
656.0
 31
0.0
 12
1542.586778
 22
631.0
 32
0.0
 13
1542.586778
 23
631.0
 33
0.0
  0
TEXT
  5
F7
  8
DIMFLHDR
 10
1517.586778
 20
686.238095
 30
0.0
 40
25.0
  1
170
 50
90.0
  0
LINE
  5
F8
  8
DIMFLHDR
 10
1107.0
 20
776.5
 30
0.0
 11
1107.0
 21
1151.0
 31
0.0
  0
LINE
  5
F9
  8
DIMFLHDR
 10
1352.0
 20
816.0
 30
0.0
 11
1352.0
 21
1151.0
 31
0.0
  0
LINE
  5
FA
  8
DIMFLHDR
 10
1132.0
 20
1136.0
 30
0.0
 11
1327.0
 21
1136.0
 31
0.0
  0
SOLID
  5
FB
  8
DIMFLHDR
 10
1132.0
 20
1131.833333
 30
0.0
 11
1132.0
 21
1140.166667
 31
0.0
 12
1107.0
 22
1136.0
 32
0.0
 13
1107.0
 23
1136.0
 33
0.0
  0
SOLID
  5
FC
  8
DIMFLHDR
 10
1327.0
 20
1131.833333
 30
0.0
 11
1327.0
 21
1140.166667
 31
0.0
 12
1352.0
 22
1136.0
 32
0.0
 13
1352.0
 23
1136.0
 33
0.0
  0
TEXT
  5
FD
  8
DIMFLHDR
 10
1197.357143
 20
1161.0
 30
0.0
 40
25.0
  1
245
  0
TEXT
  5
FE
  8
DIMFLHDL
 10
-154.642857
 20
1161.0
 30
0.0
 40
25.0
  1
245
  0
SOLID
  5
FF
  8
DIMFLHDL
 10
-220.0
 20
1131.833333
 30
0.0
 11
-220.0
 21
1140.166667
 31
0.0
 12
-245.0
 22
1136.0
 32
0.0
 13
-245.0
 23
1136.0
 33
0.0
  0
SOLID
  5
100
  8
DIMFLHDL
 10
-25.0
 20
1131.833333
 30
0.0
 11
-25.0
 21
1140.166667
 31
0.0
 12
0.0
 22
1136.0
 32
0.0
 13
0.0
 23
1136.0
 33
0.0
  0
LINE
  5
101
  8
DIMFLHDL
 10
-25.0
 20
1136.0
 30
0.0
 11
-220.0
 21
1136.0
 31
0.0
  0
LINE
  5
102
  8
DIMFLHDL
 10
-245.0
 20
816.0
 30
0.0
 11
-245.0
 21
1151.0
 31
0.0
  0
LINE
  5
103
  8
DIMFLHDL
 10
0.0
 20
776.5
 30
0.0
 11
0.0
 21
1151.0
 31
0.0
  0
SOLID
  5
104
  8
DIMFLHDL
 10
-429.166667
 20
656.0
 30
0.0
 11
-420.833333
 21
656.0
 31
0.0
 12
-425.0
 22
631.0
 32
0.0
 13
-425.0
 23
631.0
 33
0.0
  0
SOLID
  5
105
  8
DIMFLHDL
 10
-429.166667
 20
776.0
 30
0.0
 11
-420.833333
 21
776.0
 31
0.0
 12
-425.0
 22
801.0
 32
0.0
 13
-425.0
 23
801.0
 33
0.0
  0
LINE
  5
106
  8
DIMFLHDL
 10
-425.0
 20
801.0
 30
0.0
 11
-425.0
 21
656.0
 31
0.0
  0
LINE
  5
107
  8
DIMFLHDL
 10
-259.0
 20
631.0
 30
0.0
 11
-440.0
 21
631.0
 31
0.0
  0
LINE
  5
108
  8
DIMFLHDL
 10
-259.0
 20
801.0
 30
0.0
 11
-425.0
 21
801.0
 31
0.0
  0
TEXT
  5
109
  8
DIMFLHDL
 10
-450.0
 20
686.238095
 30
0.0
 40
25.0
  1
170
 50
90.0
  0
LINE
  5
10A
  8
DIMFLHDL
 10
-385.0
 20
801.0
 30
0.0
 11
-440.0
 21
801.0
 31
0.0
  0
SOLID
  5
10B
  8
STELTXT
 10
572.09943
 20
878.741808
 30
0.0
 11
565.366983
 21
883.652877
 31
0.0
 12
554.0
 22
861.0
 32
0.0
 13
554.0
 23
861.0
 33
0.0
  0
LINE
  5
10C
  8
STELTXT
 10
568.733206
 20
881.197342
 30
0.0
 11
944.984358
 21
1396.989564
 31
0.0
  0
LINE
  5
10D
  8
STELTXT
 10
944.984358
 20
1396.989564
 30
0.0
 11
998.183417
 21
1396.989564
 31
0.0
  0
LINE
  5
10E
  8
DIMENSIONS
 10
978.707218
 20
1036.0
 30
0.0
 11
1592.0
 21
1036.0
 31
0.0
  0
LINE
  5
111
  8
DETAIL
 10
0.0
 20
936.0
 30
0.0
 11
146.0
 21
936.0
 31
0.0
  0
LINE
  5
112
  8
DETAIL
 10
962.0
 20
936.0
 30
0.0
 11
1107.0
 21
936.0
 31
0.0
  0
TEXT
  5
113
  8
STELTXT
 10
-619.693719
 20
1076.626331
 30
0.0
 40
25.0
  1
DRAUGHT SKIRT
  0
LINE
  5
114
  8
STELTXT
 10
-92.299988
 20
1084.504932
 30
0.0
 11
-303.794523
 21
1084.504932
 31
0.0
  0
LINE
  5
115
  8
STELTXT
 10
-20.472192
 20
962.677136
 30
0.0
 11
-92.299988
 21
1084.504932
 31
0.0
  0
SOLID
  5
116
  8
STELTXT
 10
-17.525914
 20
965.623415
 30
0.0
 11
-23.418471
 21
959.730858
 31
0.0
 12
-2.794523
 22
944.999467
 32
0.0
 13
-2.794523
 23
944.999467
 33
0.0
  0
LINE
  5
14B
  8
DIMENSIONS
  6
CONTINUOUS
 10
410.0
 20
876.0
 30
0.0
 11
410.0
 21
1318.555086
 31
0.0
  0
LINE
  5
14C
  8
DIMENSIONS
  6
CONTINUOUS
 10
698.0
 20
876.0
 30
0.0
 11
698.0
 21
1318.555086
 31
0.0
  0
LINE
  5
14D
  8
DIMENSIONS
  6
CONTINUOUS
 10
435.0
 20
1303.555086
 30
0.0
 11
673.0
 21
1303.555086
 31
0.0
  0
SOLID
  5
14E
  8
DIMENSIONS
  6
CONTINUOUS
 10
435.0
 20
1307.721753
 30
0.0
 11
435.0
 21
1299.388419
 31
0.0
 12
410.0
 22
1303.555086
 32
0.0
 13
410.0
 23
1303.555086
 33
0.0
  0
SOLID
  5
14F
  8
DIMENSIONS
  6
CONTINUOUS
 10
673.0
 20
1307.721753
 30
0.0
 11
673.0
 21
1299.388419
 31
0.0
 12
698.0
 22
1303.555086
 32
0.0
 13
698.0
 23
1303.555086
 33
0.0
  0
TEXT
  5
150
  8
DIMENSIONS
  6
CONTINUOUS
 10
521.857143
 20
1328.555086
 30
0.0
 40
25.0
  1
%%C288
  0
LINE
  5
153
  8
DIMENSIONS
  6
CONTINUOUS
 10
122.554975
 20
741.0
 30
0.0
 11
122.554975
 21
911.0
 31
0.0
  0
SOLID
  5
154
  8
DIMENSIONS
  6
CONTINUOUS
 10
118.388308
 20
741.0
 30
0.0
 11
126.721642
 21
741.0
 31
0.0
 12
122.554975
 22
716.0
 32
0.0
 13
122.554975
 23
716.0
 33
0.0
  0
SOLID
  5
155
  8
DIMENSIONS
  6
CONTINUOUS
 10
118.388308
 20
911.0
 30
0.0
 11
126.721642
 21
911.0
 31
0.0
 12
122.554975
 22
936.0
 32
0.0
 13
122.554975
 23
936.0
 33
0.0
  0
TEXT
  5
156
  8
DIMENSIONS
  6
CONTINUOUS
 10
115.151176
 20
810.642875
 30
0.0
 40
25.0
  1
220
 50
90.0
  0
TEXT
  5
1B7
  8
STELTXT
 10
1431.966119
 20
1072.724292
 30
0.0
 40
25.0
  1
GAS INLET 1 " BSP
  0
LINE
  5
1B8
  8
STELTXT
 10
1304.84979
 20
1083.981819
 30
0.0
 11
1411.794523
 21
1083.981819
 31
0.0
  0
TEXT
  5
1B9
  8
STELTXT
 10
1667.943336
 20
1082.582484
 30
0.0
 40
15.0
  1
1
  0
TEXT
  5
1BA
  8
STELTXT
 10
1674.723919
 20
1076.48038
 30
0.0
 40
15.0
  1
/
  0
TEXT
  5
1BB
  8
STELTXT
 10
1684.216735
 20
1073.768334
 30
0.0
 40
15.0
  1
2
  0
LINE
  5
1BC
  8
STELTXT
 10
1126.545641
 20
855.67767
 30
0.0
 11
1304.84979
 21
1083.981819
 31
0.0
  0
LINE
  5
1BD
  8
CENTER
 10
1011.0
 20
838.0
 30
0.0
 11
1161.0
 21
838.0
 31
0.0
  0
SOLID
  5
1BE
  8
STELTXT
 10
1123.599363
 20
858.623948
 30
0.0
 11
1129.491919
 21
852.731391
 31
0.0
 12
1108.867972
 22
838.0
 32
0.0
 13
1108.867972
 23
838.0
 33
0.0
  0
LINE
  5
1BF
  8
DIMENSIONS
 10
1168.573352
 20
838.0
 30
0.0
 11
1448.0
 21
838.0
 31
0.0
  0
SOLID
  5
1C0
  8
DIMENSIONS
 10
1428.833333
 20
813.0
 30
0.0
 11
1437.166667
 21
813.0
 31
0.0
 12
1433.0
 22
838.0
 32
0.0
 13
1433.0
 23
838.0
 33
0.0
  0
LINE
  5
1C1
  8
DIMENSIONS
 10
1433.0
 20
813.0
 30
0.0
 11
1433.0
 21
741.0
 31
0.0
  0
TEXT
  5
1C2
  8
DIMENSIONS
 10
1419.338261
 20
747.238095
 30
0.0
 40
25.0
  1
122
 50
90.0
  0
SOLID
  5
1C3
  8
DIMENSIONS
 10
1428.833333
 20
741.0
 30
0.0
 11
1437.166667
 21
741.0
 31
0.0
 12
1433.0
 22
716.0
 32
0.0
 13
1433.0
 23
716.0
 33
0.0
  0
LINE
  5
1C4
  8
CENTER
  6
CENTER
 10
1061.052666
 20
716.0
 30
0.0
 11
1481.108137
 21
716.0
 31
0.0
  0
LINE
  5
1C6
  8
STELTXT
 10
977.547863
 20
694.647368
 30
0.0
 11
1376.332696
 21
39.765325
 31
0.0
  0
SOLID
  5
1C7
  8
STELTXT
 10
973.989091
 20
692.480284
 30
0.0
 11
981.106635
 21
696.814452
 31
0.0
 12
964.54536
 22
716.0
 32
0.0
 13
964.54536
 23
716.0
 33
0.0
  0
LINE
  5
1C8
  8
STELTXT
 10
1371.63417
 20
694.647368
 30
0.0
 11
1681.182364
 21
186.309194
 31
0.0
  0
SOLID
  5
1C9
  8
STELTXT
 10
1368.075398
 20
692.480284
 30
0.0
 11
1375.192942
 21
696.814452
 31
0.0
 12
1358.631666
 22
716.0
 32
0.0
 13
1358.631666
 23
716.0
 33
0.0
  0
TEXT
  5
1CA
  8
STELTXT
 10
1751.625024
 20
176.607653
 30
0.0
 40
25.0
  1
1 x 2" SIDE FACING FLOW FLANGE
  0
LINE
  5
1CB
  8
STELTXT
 10
1681.182364
 20
186.309194
 30
0.0
 11
1722.898786
 21
186.309194
 31
0.0
  0
TEXT
  5
1CC
  8
STELTXT
 10
1751.625024
 20
28.091082
 30
0.0
 40
25.0
  1
1 x 2" SIDE FACING RETURN TAPPING
  0
LINE
  5
1CD
  8
STELTXT
 10
1376.332696
 20
39.765325
 30
0.0
 11
1722.898786
 21
39.765325
 31
0.0
  0
LINE
  5
1CE
  8
STELTXT
 10
-263.63417
 20
694.647368
 30
0.0
 11
-573.182364
 21
186.309194
 31
0.0
  0
SOLID
  5
1CF
  8
STELTXT
 10
-260.075398
 20
692.480284
 30
0.0
 11
-267.192942
 21
696.814452
 31
0.0
 12
-250.631666
 22
716.0
 32
0.0
 13
-250.631666
 23
716.0
 33
0.0
  0
LINE
  5
1D0
  8
STELTXT
 10
130.452137
 20
694.647368
 30
0.0
 11
-268.332696
 21
39.765325
 31
0.0
  0
SOLID
  5
1D1
  8
STELTXT
 10
134.010909
 20
692.480284
 30
0.0
 11
126.893365
 21
696.814452
 31
0.0
 12
143.45464
 22
716.0
 32
0.0
 13
143.45464
 23
716.0
 33
0.0
  0
LINE
  5
1D2
  8
STELTXT
 10
-268.332696
 20
39.765325
 30
0.0
 11
-614.898786
 21
39.765325
 31
0.0
  0
TEXT
  5
1D3
  8
STELTXT
 10
-1305.529786
 20
176.607653
 30
0.0
 40
25.0
  1
1 x 2" SIDE FACING FLOW FLANGE
  0
TEXT
  5
1D4
  8
STELTXT
 10
-1372.196453
 20
28.091082
 30
0.0
 40
25.0
  1
1 x 2" SIDE FACING RETURN TAPPING
  0
LINE
  5
1D5
  8
STELTXT
 10
-573.182364
 20
186.309194
 30
0.0
 11
-614.898786
 21
186.309194
 31
0.0
  0
LINE
  5
1D6
  8
DETAIL
 10
507.0
 20
-50.0
 30
0.0
 11
1107.0
 21
-50.0
 31
0.0
  0
LINE
  5
1D7
  8
DETAIL
 10
507.0
 20
0.0
 30
0.0
 11
507.0
 21
-50.0
 31
0.0
  0
LINE
  5
1D8
  8
STELTXT
 10
1144.727859
 20
-31.940758
 30
0.0
 11
1719.645365
 21
-31.487688
 31
0.0
  0
SOLID
  5
1D9
  8
STELTXT
 10
1144.731143
 20
-36.107423
 30
0.0
 11
1144.724576
 21
-27.774093
 31
0.0
 12
1119.727867
 22
-31.960459
 32
0.0
 13
1119.727867
 23
-31.960459
 33
0.0
  0
TEXT
  5
1DA
  8
STELTXT
 10
1747.99171
 20
-43.676513
 30
0.0
 40
25.0
  1
OVERHANGING CONTROL PANEL
  0
LINE
  5
1DB
  8
DIMFLHDR
 10
1425.269017
 20
801.0
 30
0.0
 11
1557.586778
 21
801.0
 31
0.0
  0
ATTDEF
  5
214
  8
STELATT
 10
406.934597
 20
-544.324227
 30
0.0
 40
40.0
  1
CXSi 120
 72
     4
 11
500.26793
 21
-524.324227
 31
0.0
  3

  2
MODEL
 70
     2
  0
ATTDEF
  5
215
  8
STELATT
 10
422.268283
 20
-474.324227
 30
0.0
 40
40.0
  1
CONCORD 
 72
     4
 11
490.839712
 21
-454.324227
 31
0.0
  3

  2
TYPE
 70
     2
  0
ATTDEF
  5
216
  8
STELATT
 10
290.505148
 20
-404.324227
 30
0.0
 40
40.0
  1
IDEAL
 72
     4
 11
523.838482
 21
-384.324227
 31
0.0
  3

  2
MANUFACTURER
 70
     2
  0
LINE
  5
251
  8
FLHDR
 10
1352.0
 20
801.0
 30
0.0
 11
1352.0
 21
631.0
 31
0.0
  0
LINE
  5
252
  8
FLHDR
 10
1334.0
 20
801.0
 30
0.0
 11
1334.0
 21
631.0
 31
0.0
  0
LINE
  5
253
  8
FLHDR
 10
1273.973214
 20
733.5
 30
0.0
 11
1176.5
 21
733.5
 31
0.0
  0
LINE
  5
254
  8
FLHDR
 10
1273.973214
 20
698.5
 30
0.0
 11
1176.5
 21
698.5
 31
0.0
  0
LINE
  5
255
  8
FLHDR
 10
1334.0
 20
756.0
 30
0.0
 11
1145.0
 21
756.0
 31
0.0
  0
LINE
  5
256
  8
FLHDR
 10
1334.0
 20
676.0
 30
0.0
 11
1145.0
 21
676.0
 31
0.0
  0
SOLID
  5
257
  8
FLHDRTXT
 10
1181.666667
 20
684.65
 30
0.0
 11
1173.333333
 21
684.65
 31
0.0
 12
1177.5
 22
709.65
 32
0.0
 13
1177.5
 23
709.65
 33
0.0
  0
LINE
  5
258
  8
FLHDR
 10
1137.0
 20
760.0
 30
0.0
 11
1137.0
 21
672.0
 31
0.0
  0
LINE
  5
259
  8
FLHDR
 10
1137.0
 20
676.0
 30
0.0
 11
1107.0
 21
676.0
 31
0.0
  0
LINE
  5
25A
  8
FLHDR
 10
1141.0
 20
672.0
 30
0.0
 11
1137.0
 21
672.0
 31
0.0
  0
LINE
  5
25B
  8
FLHDR
 10
1141.0
 20
672.0
 30
0.0
 11
1145.0
 21
676.0
 31
0.0
  0
CIRCLE
  5
25C
  8
FLHDR
 10
1176.5
 20
716.0
 30
0.0
 40
6.35
  0
ARC
  5
25D
  8
FLHDR
 10
1176.5
 20
716.0
 30
0.0
 40
17.5
 50
90.0
 51
270.0
  0
LINE
  5
25E
  8
FLHDR
 10
1137.0
 20
756.0
 30
0.0
 11
1107.0
 21
756.0
 31
0.0
  0
LINE
  5
25F
  8
FLHDR
 10
1141.0
 20
760.0
 30
0.0
 11
1137.0
 21
760.0
 31
0.0
  0
LINE
  5
260
  8
FLHDR
 10
1141.0
 20
760.0
 30
0.0
 11
1145.0
 21
756.0
 31
0.0
  0
SOLID
  5
261
  8
FLHDRTXT
 10
1277.128841
 20
682.841162
 30
0.0
 11
1268.795508
 21
682.841162
 31
0.0
 12
1272.962174
 22
707.841162
 32
0.0
 13
1272.962174
 23
707.841162
 33
0.0
  0
SOLID
  5
262
  8
FLHDRTXT
 10
1228.479399
 20
684.65
 30
0.0
 11
1220.146066
 21
684.65
 31
0.0
 12
1224.312733
 22
709.65
 32
0.0
 13
1224.312733
 23
709.65
 33
0.0
  0
LINE
  5
263
  8
FLHDR
 10
1352.0
 20
631.0
 30
0.0
 11
1334.0
 21
631.0
 31
0.0
  0
CIRCLE
  5
264
  8
FLHDR
 10
1223.312733
 20
716.0
 30
0.0
 40
6.35
  0
CIRCLE
  5
265
  8
FLHDR
 10
1273.973214
 20
716.0
 30
0.0
 40
6.35
  0
ARC
  5
266
  8
FLHDR
 10
1273.973214
 20
716.0
 30
0.0
 40
17.5
 50
270.0
 51
90.0
  0
LINE
  5
267
  8
FLHDR
 10
1352.0
 20
801.0
 30
0.0
 11
1334.0
 21
801.0
 31
0.0
  0
LINE
  5
268
  8
FLHDL
 10
-226.0
 20
801.0
 30
0.0
 11
-226.0
 21
631.0
 31
0.0
  0
LINE
  5
269
  8
FLHDL
 10
-244.0
 20
801.0
 30
0.0
 11
-244.0
 21
631.0
 31
0.0
  0
LINE
  5
26A
  8
FLHDL
 10
-226.0
 20
676.0
 30
0.0
 11
-37.0
 21
676.0
 31
0.0
  0
LINE
  5
26B
  8
FLHDL
 10
-226.0
 20
756.0
 30
0.0
 11
-37.0
 21
756.0
 31
0.0
  0
LINE
  5
26C
  8
FLHDL
 10
-244.0
 20
631.0
 30
0.0
 11
-226.0
 21
631.0
 31
0.0
  0
LINE
  5
26D
  8
FLHDL
 10
-29.0
 20
760.0
 30
0.0
 11
-29.0
 21
672.0
 31
0.0
  0
SOLID
  5
26E
  8
FLHDRTXT
 10
-120.479399
 20
684.65
 30
0.0
 11
-112.146066
 21
684.65
 31
0.0
 12
-116.312733
 22
709.65
 32
0.0
 13
-116.312733
 23
709.65
 33
0.0
  0
SOLID
  5
26F
  8
FLHDRTXT
 10
-169.128841
 20
682.841162
 30
0.0
 11
-160.795508
 21
682.841162
 31
0.0
 12
-164.962174
 22
707.841162
 32
0.0
 13
-164.962174
 23
707.841162
 33
0.0
  0
SOLID
  5
270
  8
FLHDRTXT
 10
-73.666667
 20
684.65
 30
0.0
 11
-65.333333
 21
684.65
 31
0.0
 12
-69.5
 22
709.65
 32
0.0
 13
-69.5
 23
709.65
 33
0.0
  0
LINE
  5
271
  8
FLHDL
 10
-29.0
 20
676.0
 30
0.0
 11
1.0
 21
676.0
 31
0.0
  0
LINE
  5
272
  8
FLHDL
 10
-33.0
 20
672.0
 30
0.0
 11
-37.0
 21
676.0
 31
0.0
  0
LINE
  5
273
  8
FLHDL
 10
-33.0
 20
672.0
 30
0.0
 11
-29.0
 21
672.0
 31
0.0
  0
LINE
  5
274
  8
FLHDL
 10
-165.973214
 20
698.5
 30
0.0
 11
-68.5
 21
698.5
 31
0.0
  0
LINE
  5
275
  8
FLHDL
 10
-165.973214
 20
733.5
 30
0.0
 11
-68.5
 21
733.5
 31
0.0
  0
ARC
  5
276
  8
FLHDL
 10
-165.973214
 20
716.0
 30
0.0
 40
17.5
 50
90.0
 51
270.0
  0
CIRCLE
  5
277
  8
FLHDL
 10
-165.973214
 20
716.0
 30
0.0
 40
6.35
  0
CIRCLE
  5
278
  8
FLHDL
 10
-115.312733
 20
716.0
 30
0.0
 40
6.35
  0
ARC
  5
279
  8
FLHDL
 10
-68.5
 20
716.0
 30
0.0
 40
17.5
 50
270.0
 51
90.0
  0
CIRCLE
  5
27A
  8
FLHDL
 10
-68.5
 20
716.0
 30
0.0
 40
6.35
  0
LINE
  5
27B
  8
FLHDL
 10
-29.0
 20
756.0
 30
0.0
 11
1.0
 21
756.0
 31
0.0
  0
LINE
  5
27C
  8
FLHDL
 10
-33.0
 20
760.0
 30
0.0
 11
-37.0
 21
756.0
 31
0.0
  0
LINE
  5
27D
  8
FLHDL
 10
-33.0
 20
760.0
 30
0.0
 11
-29.0
 21
760.0
 31
0.0
  0
LINE
  5
27E
  8
FLHDL
 10
-244.0
 20
801.0
 30
0.0
 11
-226.0
 21
801.0
 31
0.0
  0
LINE
  5
27F
  8
FLHDLTXT
 10
-164.873172
 20
698.5
 30
0.0
 11
-164.873172
 21
572.086843
 31
0.0
  0
LINE
  5
280
  8
FLHDLTXT
 10
-116.3763
 20
698.5
 30
0.0
 11
-116.3763
 21
491.516731
 31
0.0
  0
LINE
  5
281
  8
FLHDLTXT
 10
-69.5
 20
684.65
 30
0.0
 11
-69.5
 21
410.94662
 31
0.0
  0
ENDSEC
  0
EOF
