  0
SECTION
  2
HEADER
  9
$ACADVER
  1
AC1009
  9
$INSBASE
 10
0.0
 20
0.0
 30
0.0
  9
$EXTMIN
 10
-100.081153
 20
-544.418457
 30
0.0
  9
$EXTMAX
 10
1230.081195
 20
1000.094279
 30
0.0
  9
$LIMMIN
 10
0.0
 20
0.0
  9
$LIMMAX
 10
420.0
 20
297.0
  9
$ORTHOMODE
 70
     1
  9
$REGENMODE
 70
     1
  9
$FILLMODE
 70
     1
  9
$QTEXTMODE
 70
     0
  9
$MIRRTEXT
 70
     0
  9
$DRAGMODE
 70
     2
  9
$LTSCALE
 40
25.0
  9
$OSMODE
 70
     0
  9
$ATTMODE
 70
     1
  9
$TEXTSIZE
 40
3.0
  9
$TRACEWID
 40
10.0
  9
$TEXTSTYLE
  7
STANDARD
  9
$CLAYER
  8
0
  9
$CELTYPE
  6
BYLAYER
  9
$CECOLOR
 62
   256
  9
$DIMSCALE
 40
1.0
  9
$DIMASZ
 40
25.0
  9
$DIMEXO
 40
15.0
  9
$DIMDLI
 40
10.0
  9
$DIMRND
 40
0.0
  9
$DIMDLE
 40
1.25
  9
$DIMEXE
 40
15.0
  9
$DIMTP
 40
0.0
  9
$DIMTM
 40
0.0
  9
$DIMTXT
 40
25.0
  9
$DIMCEN
 40
-3.0
  9
$DIMTSZ
 40
0.0
  9
$DIMTOL
 70
     0
  9
$DIMLIM
 70
     0
  9
$DIMTIH
 70
     0
  9
$DIMTOH
 70
     0
  9
$DIMSE1
 70
     0
  9
$DIMSE2
 70
     0
  9
$DIMTAD
 70
     0
  9
$DIMZIN
 70
     1
  9
$DIMBLK
  1

  9
$DIMASO
 70
     0
  9
$DIMSHO
 70
     0
  9
$DIMPOST
  1

  9
$DIMAPOST
  1

  9
$DIMALT
 70
     0
  9
$DIMALTD
 70
     2
  9
$DIMALTF
 40
0.039
  9
$DIMLFAC
 40
1.0
  9
$DIMTOFL
 70
     0
  9
$DIMTVP
 40
1.5
  9
$DIMTIX
 70
     0
  9
$DIMSOXD
 70
     0
  9
$DIMSAH
 70
     0
  9
$DIMBLK1
  1

  9
$DIMBLK2
  1

  9
$DIMSTYLE
  2
-
  9
$DIMCLRD
 70
     0
  9
$DIMCLRE
 70
     0
  9
$DIMCLRT
 70
     0
  9
$DIMTFAC
 40
1.0
  9
$DIMGAP
 40
0.09
  9
$LUNITS
 70
     2
  9
$LUPREC
 70
     2
  9
$SKETCHINC
 40
10.0
  9
$FILLETRAD
 40
0.0
  9
$AUNITS
 70
     0
  9
$AUPREC
 70
     4
  9
$MENU
  1
acad
  9
$ELEVATION
 40
0.0
  9
$PELEVATION
 40
0.0
  9
$THICKNESS
 40
0.0
  9
$LIMCHECK
 70
     0
  9
$BLIPMODE
 70
     0
  9
$CHAMFERA
 40
0.0
  9
$CHAMFERB
 40
0.0
  9
$SKPOLY
 70
     1
  9
$TDCREATE
 40
2450098.538812
  9
$TDUPDATE
 40
2453073.533341
  9
$TDINDWG
 40
0.042981
  9
$TDUSRTIMER
 40
0.042981
  9
$USRTIMER
 70
     1
  9
$ANGBASE
 50
0.0
  9
$ANGDIR
 70
     0
  9
$PDMODE
 70
     3
  9
$PDSIZE
 40
0.0
  9
$PLINEWID
 40
0.0
  9
$COORDS
 70
     1
  9
$SPLFRAME
 70
     0
  9
$SPLINETYPE
 70
     6
  9
$SPLINESEGS
 70
     6
  9
$ATTDIA
 70
     0
  9
$ATTREQ
 70
     1
  9
$HANDLING
 70
 22529
  9
$HANDSEED
  5
51F
  9
$SURFTAB1
 70
    12
  9
$SURFTAB2
 70
    12
  9
$SURFTYPE
 70
     6
  9
$SURFU
 70
    12
  9
$SURFV
 70
    12
  9
$UCSNAME
  2

  9
$UCSORG
 10
0.0
 20
0.0
 30
0.0
  9
$UCSXDIR
 10
1.0
 20
0.0
 30
0.0
  9
$UCSYDIR
 10
0.0
 20
1.0
 30
0.0
  9
$PUCSNAME
  2

  9
$PUCSORG
 10
0.0
 20
0.0
 30
0.0
  9
$PUCSXDIR
 10
1.0
 20
0.0
 30
0.0
  9
$PUCSYDIR
 10
0.0
 20
1.0
 30
0.0
  9
$USERI1
 70
     0
  9
$USERI2
 70
     0
  9
$USERI3
 70
     0
  9
$USERI4
 70
     0
  9
$USERI5
 70
     0
  9
$USERR1
 40
0.0
  9
$USERR2
 40
0.0
  9
$USERR3
 40
0.0
  9
$USERR4
 40
0.0
  9
$USERR5
 40
0.0
  9
$WORLDVIEW
 70
     0
  9
$SHADEDGE
 70
     3
  9
$SHADEDIF
 70
    70
  9
$TILEMODE
 70
     1
  9
$MAXACTVP
 70
    16
  9
$PLIMCHECK
 70
     0
  9
$PEXTMIN
 10
1.000000E+020
 20
1.000000E+020
 30
1.000000E+020
  9
$PEXTMAX
 10
-1.000000E+020
 20
-1.000000E+020
 30
-1.000000E+020
  9
$PLIMMIN
 10
0.0
 20
0.0
  9
$PLIMMAX
 10
12.0
 20
9.0
  9
$UNITMODE
 70
     0
  9
$VISRETAIN
 70
     0
  9
$PLINEGEN
 70
     0
  9
$PSLTSCALE
 70
     0
  0
ENDSEC
  0
SECTION
  2
TABLES
  0
TABLE
  2
VPORT
 70
     2
  0
VPORT
  2
*ACTIVE
 70
     0
 10
0.0
 20
0.0
 11
1.0
 21
1.0
 12
565.000021
 22
227.837911
 13
0.0
 23
0.0
 14
1000.0
 24
1000.0
 15
0.0
 25
0.0
 16
0.0
 26
0.0
 36
1.0
 17
0.0
 27
0.0
 37
0.0
 40
1562.299831
 41
1.825
 42
50.0
 43
0.0
 44
0.0
 50
0.0
 51
0.0
 71
     0
 72
  2000
 73
     1
 74
     2
 75
     0
 76
     0
 77
     0
 78
     0
  0
ENDTAB
  0
TABLE
  2
LTYPE
 70
     3
  0
LTYPE
  2
CONTINUOUS
 70
     0
  3
Solid line
 72
    65
 73
     0
 40
0.0
  0
LTYPE
  2
CENTER
 70
     0
  3
____ _ ____ _ ____ _ ____ _ ____ _ ____ _ ____
 72
    65
 73
     4
 40
2.0
 49
1.25
 49
-0.25
 49
0.25
 49
-0.25
  0
LTYPE
  2
DASHED
 70
     0
  3
__ __ __ __ __ __ __ __ __ __ __ __ __ __ __
 72
    65
 73
     2
 40
0.75
 49
0.5
 49
-0.25
  0
ENDTAB
  0
TABLE
  2
LAYER
 70
    12
  0
LAYER
  2
0
 70
     0
 62
     7
  6
CONTINUOUS
  0
LAYER
  2
DETAIL
 70
     0
 62
     2
  6
CONTINUOUS
  0
LAYER
  2
DIMENSIONS
 70
     1
 62
     7
  6
CONTINUOUS
  0
LAYER
  2
CENTER
 70
     1
 62
     4
  6
CENTER
  0
LAYER
  2
ORIGIN
 70
     0
 62
     6
  6
CONTINUOUS
  0
LAYER
  2
PLANNING
 70
     1
 62
     1
  6
DASHED
  0
LAYER
  2
STELTXT
 70
     1
 62
     4
  6
CONTINUOUS
  0
LAYER
  2
FLHDL
 70
     1
 62
     3
  6
CONTINUOUS
  0
LAYER
  2
FLHDR
 70
     1
 62
     3
  6
CONTINUOUS
  0
LAYER
  2
DIMFLHDL
 70
     1
 62
     7
  6
CONTINUOUS
  0
LAYER
  2
DIMFLHDR
 70
     1
 62
     7
  6
CONTINUOUS
  0
LAYER
  2
STELATT
 70
     0
 62
     7
  6
CONTINUOUS
  0
ENDTAB
  0
TABLE
  2
STYLE
 70
     1
  0
STYLE
  2
STANDARD
 70
     0
 40
0.0
 41
1.0
 50
0.0
 71
     0
 42
3.0
  3
simplex
  4

  0
ENDTAB
  0
TABLE
  2
VIEW
 70
     0
  0
ENDTAB
  0
TABLE
  2
UCS
 70
     0
  0
ENDTAB
  0
TABLE
  2
APPID
 70
     1
  0
APPID
  2
ACAD
 70
     0
  0
ENDTAB
  0
TABLE
  2
DIMSTYLE
 70
     1
  0
DIMSTYLE
  2
-
 70
     0
  3

  4

  5

  6

  7

 40
1.0
 41
0.18
 42
0.0625
 43
0.38
 44
0.18
 45
0.0
 46
0.0
 47
0.0
 48
0.0
140
0.18
141
0.09
142
0.0
143
25.4
144
1.0
145
0.0
146
1.0
147
0.09
 71
     0
 72
     0
 73
     1
 74
     1
 75
     0
 76
     0
 77
     0
 78
     0
170
     0
171
     2
172
     0
173
     0
174
     0
175
     0
176
     0
177
     0
178
     0
  0
ENDTAB
  0
ENDSEC
  0
SECTION
  2
BLOCKS
  0
BLOCK
  8
0
  2
$MODEL_SPACE
 70
     0
 10
0.0
 20
0.0
 30
0.0
  3
$MODEL_SPACE
  1

  0
ENDBLK
  5
3A4
  8
0
  0
BLOCK
 67
     1
  8
0
  2
$PAPER_SPACE
 70
     0
 10
0.0
 20
0.0
 30
0.0
  3
$PAPER_SPACE
  1

  0
ENDBLK
  5
3A2
 67
     1
  8
0
  0
BLOCK
  8
0
  2
GRILLE
 70
     0
 10
0.0
 20
0.0
 30
0.0
  3
GRILLE
  1

  0
ARC
  5
31
  8
DETAIL
 10
74.5
 20
29.7
 30
0.0
 40
3.0
 50
180.0
 51
0.0
  0
ARC
  5
32
  8
DETAIL
 10
74.5
 20
73.7
 30
0.0
 40
3.0
 50
0.0
 51
180.0
  0
LINE
  5
33
  8
DETAIL
 10
77.5
 20
29.7
 30
0.0
 11
77.5
 21
73.7
 31
0.0
  0
LINE
  5
34
  8
DETAIL
 10
71.5
 20
29.7
 30
0.0
 11
71.5
 21
73.7
 31
0.0
  0
ENDBLK
  5
35
  8
0
  0
ENDSEC
  0
SECTION
  2
ENTITIES
  0
TEXT
  5
36
  8
DIMENSIONS
 10
575.714286
 20
-200.0
 30
0.0
 40
25.0
  1
1230
  0
SOLID
  5
37
  8
DIMENSIONS
 10
25.0
 20
-229.166667
 30
0.0
 11
25.0
 21
-220.833333
 31
0.0
 12
0.0
 22
-225.0
 32
0.0
 13
0.0
 23
-225.0
 33
0.0
  0
SOLID
  5
38
  8
DIMENSIONS
 10
1205.0
 20
-229.166667
 30
0.0
 11
1205.0
 21
-220.833333
 31
0.0
 12
1230.0
 22
-225.0
 32
0.0
 13
1230.0
 23
-225.0
 33
0.0
  0
LINE
  5
39
  8
DIMENSIONS
 10
1205.0
 20
-225.0
 30
0.0
 11
25.0
 21
-225.0
 31
0.0
  0
LINE
  5
3A
  8
DIMENSIONS
 10
0.0
 20
-240.0
 30
0.0
 11
0.0
 21
-240.0
 31
0.0
  0
LINE
  5
3B
  8
DIMENSIONS
 10
1230.0
 20
5.0
 30
0.0
 11
1230.0
 21
-240.0
 31
0.0
  0
LINE
  5
3C
  8
PLANNING
 10
1330.0
 20
0.0
 30
0.0
 11
-100.0
 21
0.0
 31
0.0
  0
LINE
  5
3D
  8
PLANNING
 10
1330.0
 20
1000.0
 30
0.0
 11
-100.0
 21
1000.0
 31
0.0
  0
LINE
  5
3E
  8
PLANNING
 10
-100.0
 20
1000.0
 30
0.0
 11
-100.0
 21
0.0
 31
0.0
  0
LINE
  5
3F
  8
PLANNING
 10
1330.0
 20
0.0
 30
0.0
 11
1330.0
 21
1000.0
 31
0.0
  0
TEXT
  5
40
  8
DIMENSIONS
 10
-495.0
 20
458.333333
 30
0.0
 40
25.0
  1
1000
 50
90.0
  0
SOLID
  5
41
  8
DIMENSIONS
 10
-465.833333
 20
25.0
 30
0.0
 11
-474.166667
 21
25.0
 31
0.0
 12
-470.0
 22
0.0
 32
0.0
 13
-470.0
 23
0.0
 33
0.0
  0
SOLID
  5
42
  8
DIMENSIONS
 10
-465.833333
 20
975.0
 30
0.0
 11
-474.166667
 21
975.0
 31
0.0
 12
-470.0
 22
1000.0
 32
0.0
 13
-470.0
 23
1000.0
 33
0.0
  0
LINE
  5
43
  8
DIMENSIONS
 10
-470.0
 20
975.0
 30
0.0
 11
-470.0
 21
25.0
 31
0.0
  0
LINE
  5
44
  8
DIMENSIONS
 10
-455.0
 20
0.0
 30
0.0
 11
-455.0
 21
0.0
 31
0.0
  0
LINE
  5
45
  8
DIMENSIONS
 10
-15.0
 20
1000.0
 30
0.0
 11
-485.0
 21
1000.0
 31
0.0
  0
POLYLINE
  5
46
  8
ORIGIN
 66
     1
 10
0.0
 20
0.0
 30
0.0
  0
VERTEX
  5
516
  8
ORIGIN
 10
0.0
 20
0.0
 30
0.0
  0
VERTEX
  5
517
  8
ORIGIN
 10
-100.0
 20
-100.0
 30
0.0
  0
VERTEX
  5
518
  8
ORIGIN
 10
-100.0
 20
100.0
 30
0.0
  0
VERTEX
  5
519
  8
ORIGIN
 10
100.0
 20
-100.0
 30
0.0
  0
VERTEX
  5
51A
  8
ORIGIN
 10
100.0
 20
100.0
 30
0.0
  0
VERTEX
  5
51B
  8
ORIGIN
 10
0.0
 20
0.0
 30
0.0
  0
SEQEND
  5
51C
  8
ORIGIN
  0
LINE
  5
5D
  8
DIMENSIONS
 10
131.0
 20
0.0
 30
0.0
 11
-485.0
 21
0.0
 31
0.0
  0
TEXT
  5
5F
  8
DIMENSIONS
 10
586.333333
 20
-100.0
 30
0.0
 40
25.0
  1
939
  0
SOLID
  5
60
  8
DIMENSIONS
 10
1060.0
 20
-129.166667
 30
0.0
 11
1060.0
 21
-120.833333
 31
0.0
 12
1085.0
 22
-125.0
 32
0.0
 13
1085.0
 23
-125.0
 33
0.0
  0
SOLID
  5
61
  8
DIMENSIONS
 10
171.0
 20
-129.166667
 30
0.0
 11
171.0
 21
-120.833333
 31
0.0
 12
146.0
 22
-125.0
 32
0.0
 13
146.0
 23
-125.0
 33
0.0
  0
LINE
  5
62
  8
DIMENSIONS
 10
171.0
 20
-125.0
 30
0.0
 11
1060.0
 21
-125.0
 31
0.0
  0
LINE
  5
63
  8
DIMENSIONS
 10
1085.0
 20
260.0
 30
0.0
 11
1085.0
 21
-140.0
 31
0.0
  0
LINE
  5
64
  8
DIMENSIONS
 10
146.0
 20
260.0
 30
0.0
 11
146.0
 21
-140.0
 31
0.0
  0
LINE
  5
6B
  8
DIMENSIONS
 10
0.0
 20
5.0
 30
0.0
 11
0.0
 21
-240.0
 31
0.0
  0
LINE
  5
6D
  8
CENTER
 10
146.0
 20
423.0
 30
0.0
 11
146.0
 21
273.0
 31
0.0
  0
LINE
  5
6E
  8
CENTER
 10
1085.0
 20
423.0
 30
0.0
 11
1085.0
 21
273.0
 31
0.0
  0
LINE
  5
6F
  8
CENTER
 10
1085.0
 20
780.0
 30
0.0
 11
1085.0
 21
630.0
 31
0.0
  0
LINE
  5
70
  8
CENTER
 10
146.0
 20
780.0
 30
0.0
 11
146.0
 21
630.0
 31
0.0
  0
TEXT
  5
72
  8
DIMENSIONS
 10
1988.851071
 20
321.357143
 30
0.0
 40
25.0
  1
705
 50
90.0
  0
SOLID
  5
73
  8
DIMENSIONS
 10
2018.017738
 20
680.0
 30
0.0
 11
2009.684405
 21
680.0
 31
0.0
 12
2013.851071
 22
705.0
 32
0.0
 13
2013.851071
 23
705.0
 33
0.0
  0
SOLID
  5
74
  8
DIMENSIONS
 10
2018.017738
 20
25.0
 30
0.0
 11
2009.684405
 21
25.0
 31
0.0
 12
2013.851071
 22
0.0
 32
0.0
 13
2013.851071
 23
0.0
 33
0.0
  0
LINE
  5
75
  8
DIMENSIONS
 10
2013.851071
 20
25.0
 30
0.0
 11
2013.851071
 21
682.0
 31
0.0
  0
LINE
  5
76
  8
DIMENSIONS
 10
1175.0
 20
705.0
 30
0.0
 11
1540.0
 21
705.0
 31
0.0
  0
LINE
  5
77
  8
DIMENSIONS
 10
2028.851071
 20
0.0
 30
0.0
 11
2028.851071
 21
0.0
 31
0.0
  0
TEXT
  5
78
  8
DIMENSIONS
 10
1761.975111
 20
142.857143
 30
0.0
 40
25.0
  1
348
 50
90.0
  0
SOLID
  5
79
  8
DIMENSIONS
 10
1791.141778
 20
323.0
 30
0.0
 11
1782.808444
 21
323.0
 31
0.0
 12
1786.975111
 22
348.0
 32
0.0
 13
1786.975111
 23
348.0
 33
0.0
  0
SOLID
  5
7A
  8
DIMENSIONS
 10
1791.141778
 20
25.0
 30
0.0
 11
1782.808444
 21
25.0
 31
0.0
 12
1786.975111
 22
0.0
 32
0.0
 13
1786.975111
 23
0.0
 33
0.0
  0
LINE
  5
7B
  8
DIMENSIONS
 10
1786.975111
 20
25.0
 30
0.0
 11
1786.975111
 21
325.0
 31
0.0
  0
LINE
  5
7D
  8
DIMENSIONS
 10
1100.0
 20
0.0
 30
0.0
 11
2028.851071
 21
0.0
 31
0.0
  0
LINE
  5
7E
  8
CENTER
 10
221.0
 20
348.0
 30
0.0
 11
71.0
 21
348.0
 31
0.0
  0
LINE
  5
7F
  8
CENTER
 10
221.0
 20
705.0
 30
0.0
 11
71.0
 21
705.0
 31
0.0
  0
LINE
  5
80
  8
CENTER
 10
1160.0
 20
348.0
 30
0.0
 11
1010.0
 21
348.0
 31
0.0
  0
LINE
  5
81
  8
CENTER
 10
1160.0
 20
705.0
 30
0.0
 11
1010.0
 21
705.0
 31
0.0
  0
TEXT
  5
82
  8
DIMENSIONS
 10
575.714286
 20
1506.212812
 30
0.0
 40
25.0
  1
1230
  0
SOLID
  5
83
  8
DIMENSIONS
 10
1205.0
 20
1477.046146
 30
0.0
 11
1205.0
 21
1485.379479
 31
0.0
 12
1230.0
 22
1481.212812
 32
0.0
 13
1230.0
 23
1481.212812
 33
0.0
  0
SOLID
  5
84
  8
DIMENSIONS
 10
25.0
 20
1477.046146
 30
0.0
 11
25.0
 21
1485.379479
 31
0.0
 12
0.0
 22
1481.212812
 32
0.0
 13
0.0
 23
1481.212812
 33
0.0
  0
LINE
  5
85
  8
DIMENSIONS
 10
25.0
 20
1481.212812
 30
0.0
 11
1205.0
 21
1481.212812
 31
0.0
  0
LINE
  5
86
  8
DIMENSIONS
 10
1230.0
 20
1466.212812
 30
0.0
 11
1230.0
 21
1466.212812
 31
0.0
  0
LINE
  5
87
  8
DIMENSIONS
 10
0.0
 20
1015.0
 30
0.0
 11
0.0
 21
1496.212812
 31
0.0
  0
TEXT
  5
88
  8
DIMENSIONS
 10
244.357143
 20
1150.0
 30
0.0
 40
25.0
  1
615
  0
SOLID
  5
89
  8
DIMENSIONS
 10
25.0
 20
1120.833333
 30
0.0
 11
25.0
 21
1129.166667
 31
0.0
 12
0.0
 22
1125.0
 32
0.0
 13
0.0
 23
1125.0
 33
0.0
  0
SOLID
  5
8A
  8
DIMENSIONS
 10
589.5
 20
1120.833333
 30
0.0
 11
589.5
 21
1129.166667
 31
0.0
 12
614.5
 22
1125.0
 32
0.0
 13
614.5
 23
1125.0
 33
0.0
  0
LINE
  5
8B
  8
DIMENSIONS
 10
589.5
 20
1125.0
 30
0.0
 11
25.0
 21
1125.0
 31
0.0
  0
LINE
  5
8C
  8
DIMENSIONS
 10
615.5
 20
1090.0
 30
0.0
 11
615.5
 21
1140.0
 31
0.0
  0
LINE
  5
8D
  8
DIMENSIONS
 10
1230.0
 20
1015.0
 30
0.0
 11
1230.0
 21
1496.212812
 31
0.0
  0
LINE
  5
8E
  8
CENTER
 10
615.5
 20
1075.0
 30
0.0
 11
615.5
 21
925.0
 31
0.0
  0
LINE
  5
93
  8
DETAIL
 10
0.0
 20
1000.0
 30
0.0
 11
0.0
 21
10.0
 31
0.0
  0
LINE
  5
94
  8
DETAIL
 10
1230.0
 20
1000.0
 30
0.0
 11
0.0
 21
1000.0
 31
0.0
  0
LINE
  5
95
  8
DETAIL
 10
1230.0
 20
10.0
 30
0.0
 11
1230.0
 21
1000.0
 31
0.0
  0
LINE
  5
96
  8
DETAIL
 10
146.0
 20
0.0
 30
0.0
 11
1085.0
 21
0.0
 31
0.0
  0
LINE
  5
BD
  8
DIMFLHDL
 10
0.0
 20
1015.0
 30
0.0
 11
0.0
 21
1140.0
 31
0.0
  0
LINE
  5
BE
  8
DIMFLHDL
 10
-245.0
 20
807.0
 30
0.0
 11
-245.0
 21
1140.0
 31
0.0
  0
LINE
  5
BF
  8
DIMFLHDL
 10
-25.0
 20
1125.0
 30
0.0
 11
-220.0
 21
1125.0
 31
0.0
  0
SOLID
  5
C0
  8
DIMFLHDL
 10
-25.0
 20
1120.833333
 30
0.0
 11
-25.0
 21
1129.166667
 31
0.0
 12
0.0
 22
1125.0
 32
0.0
 13
0.0
 23
1125.0
 33
0.0
  0
SOLID
  5
C1
  8
DIMFLHDL
 10
-220.0
 20
1120.833333
 30
0.0
 11
-220.0
 21
1129.166667
 31
0.0
 12
-245.0
 22
1125.0
 32
0.0
 13
-245.0
 23
1125.0
 33
0.0
  0
TEXT
  5
C2
  8
DIMFLHDL
 10
-154.642857
 20
1150.0
 30
0.0
 40
25.0
  1
245
  0
LINE
  5
C3
  8
DIMFLHDL
 10
-260.0
 20
790.0
 30
0.0
 11
-385.0
 21
790.0
 31
0.0
  0
LINE
  5
C4
  8
DIMFLHDL
 10
-260.0
 20
620.0
 30
0.0
 11
-385.0
 21
620.0
 31
0.0
  0
LINE
  5
C5
  8
DIMFLHDL
 10
-370.0
 20
765.0
 30
0.0
 11
-370.0
 21
645.0
 31
0.0
  0
SOLID
  5
C6
  8
DIMFLHDL
 10
-365.833333
 20
765.0
 30
0.0
 11
-374.166667
 21
765.0
 31
0.0
 12
-370.0
 22
790.0
 32
0.0
 13
-370.0
 23
790.0
 33
0.0
  0
SOLID
  5
C7
  8
DIMFLHDL
 10
-365.833333
 20
645.0
 30
0.0
 11
-374.166667
 21
645.0
 31
0.0
 12
-370.0
 22
620.0
 32
0.0
 13
-370.0
 23
620.0
 33
0.0
  0
TEXT
  5
C8
  8
DIMFLHDL
 10
-395.0
 20
675.238095
 30
0.0
 40
25.0
  1
170
 50
90.0
  0
TEXT
  5
C9
  8
DIMFLHDR
 10
1575.0
 20
677.238095
 30
0.0
 40
25.0
  1
170
 50
90.0
  0
SOLID
  5
CA
  8
DIMFLHDR
 10
1595.833333
 20
647.0
 30
0.0
 11
1604.166667
 21
647.0
 31
0.0
 12
1600.0
 22
622.0
 32
0.0
 13
1600.0
 23
622.0
 33
0.0
  0
SOLID
  5
CB
  8
DIMFLHDR
 10
1595.833333
 20
767.0
 30
0.0
 11
1604.166667
 21
767.0
 31
0.0
 12
1600.0
 22
792.0
 32
0.0
 13
1600.0
 23
792.0
 33
0.0
  0
LINE
  5
CC
  8
DIMFLHDR
 10
1600.0
 20
767.0
 30
0.0
 11
1600.0
 21
647.0
 31
0.0
  0
LINE
  5
CD
  8
DIMFLHDR
 10
1490.0
 20
622.0
 30
0.0
 11
1615.0
 21
622.0
 31
0.0
  0
LINE
  5
CE
  8
DIMFLHDR
 10
1490.0
 20
792.0
 30
0.0
 11
1615.0
 21
792.0
 31
0.0
  0
TEXT
  5
CF
  8
DIMFLHDR
 10
1320.357143
 20
1150.0
 30
0.0
 40
25.0
  1
245
  0
SOLID
  5
D0
  8
DIMFLHDR
 10
1450.0
 20
1120.833333
 30
0.0
 11
1450.0
 21
1129.166667
 31
0.0
 12
1475.0
 22
1125.0
 32
0.0
 13
1475.0
 23
1125.0
 33
0.0
  0
SOLID
  5
D1
  8
DIMFLHDR
 10
1255.0
 20
1120.833333
 30
0.0
 11
1255.0
 21
1129.166667
 31
0.0
 12
1230.0
 22
1125.0
 32
0.0
 13
1230.0
 23
1125.0
 33
0.0
  0
LINE
  5
D2
  8
DIMFLHDR
 10
1255.0
 20
1125.0
 30
0.0
 11
1450.0
 21
1125.0
 31
0.0
  0
LINE
  5
D3
  8
DIMFLHDR
 10
1475.0
 20
807.0
 30
0.0
 11
1475.0
 21
1140.0
 31
0.0
  0
INSERT
  5
D4
  8
DETAIL
  2
GRILLE
 10
546.0
 20
0.0
 30
0.0
  0
INSERT
  5
D5
  8
DETAIL
  2
GRILLE
 10
557.0
 20
0.0
 30
0.0
  0
INSERT
  5
D6
  8
DETAIL
  2
GRILLE
 10
568.0
 20
0.0
 30
0.0
  0
INSERT
  5
D7
  8
DETAIL
  2
GRILLE
 10
579.0
 20
0.0
 30
0.0
  0
INSERT
  5
D8
  8
DETAIL
  2
GRILLE
 10
590.0
 20
0.0
 30
0.0
  0
INSERT
  5
D9
  8
DETAIL
  2
GRILLE
 10
601.0
 20
0.0
 30
0.0
  0
INSERT
  5
DA
  8
DETAIL
  2
GRILLE
 10
612.0
 20
0.0
 30
0.0
  0
INSERT
  5
DB
  8
DETAIL
  2
GRILLE
 10
623.0
 20
0.0
 30
0.0
  0
LINE
  5
DC
  8
DETAIL
 10
146.0
 20
10.0
 30
0.0
 11
146.0
 21
0.0
 31
0.0
  0
LINE
  5
DD
  8
DETAIL
 10
1085.0
 20
10.0
 30
0.0
 11
1085.0
 21
0.0
 31
0.0
  0
LINE
  5
DE
  8
DETAIL
 10
0.0
 20
10.0
 30
0.0
 11
1230.0
 21
10.0
 31
0.0
  0
LINE
  5
DF
  8
DETAIL
  6
DASHED
 10
1085.309163
 20
980.0
 30
0.0
 11
146.0
 21
980.0
 31
0.0
  0
LINE
  5
E0
  8
DETAIL
  6
DASHED
 10
146.0
 20
980.0
 30
0.0
 11
146.0
 21
965.0
 31
0.0
  0
TEXT
  5
E1
  8
STELTXT
 10
-571.579159
 20
1240.185722
 30
0.0
 40
25.0
  1
FLUE OUTLET %%C288mm
  0
SOLID
  5
E2
  8
STELTXT
 10
601.298708
 20
1000.992485
 30
0.0
 11
595.257972
 21
995.251931
 31
0.0
 12
615.5
 22
980.0
 32
0.0
 13
615.5
 23
980.0
 33
0.0
  0
LINE
  5
E3
  8
STELTXT
 10
598.27834
 20
998.122208
 30
0.0
 11
318.927939
 21
1252.015206
 31
0.0
  0
LINE
  5
E4
  8
DIMENSIONS
 10
1585.0
 20
705.0
 30
0.0
 11
2028.851071
 21
705.0
 31
0.0
  0
LINE
  5
E5
  8
DIMFLHDR
 10
1230.0
 20
1015.0
 30
0.0
 11
1230.0
 21
1140.0
 31
0.0
  0
LINE
  5
EA
  8
DETAIL
 10
0.0
 20
107.408846
 30
0.0
 11
1230.0
 21
107.408846
 31
0.0
  0
LINE
  5
11F
  8
DIMENSIONS
 10
1199.117116
 20
348.0
 30
0.0
 11
1799.693929
 21
348.0
 31
0.0
  0
INSERT
  5
121
  8
DETAIL
  2
GRILLE
 10
634.0
 20
0.0
 30
0.0
  0
INSERT
  5
122
  8
DETAIL
  2
GRILLE
 10
645.0
 20
0.0
 30
0.0
  0
INSERT
  5
123
  8
DETAIL
  2
GRILLE
 10
656.0
 20
0.0
 30
0.0
  0
INSERT
  5
124
  8
DETAIL
  2
GRILLE
 10
667.0
 20
0.0
 30
0.0
  0
INSERT
  5
125
  8
DETAIL
  2
GRILLE
 10
678.0
 20
0.0
 30
0.0
  0
INSERT
  5
126
  8
DETAIL
  2
GRILLE
 10
689.0
 20
0.0
 30
0.0
  0
INSERT
  5
127
  8
DETAIL
  2
GRILLE
 10
700.0
 20
0.0
 30
0.0
  0
INSERT
  5
128
  8
DETAIL
  2
GRILLE
 10
711.0
 20
0.0
 30
0.0
  0
INSERT
  5
129
  8
DETAIL
  2
GRILLE
 10
722.0
 20
0.0
 30
0.0
  0
INSERT
  5
12A
  8
DETAIL
  2
GRILLE
 10
733.0
 20
0.0
 30
0.0
  0
INSERT
  5
12B
  8
DETAIL
  2
GRILLE
 10
744.0
 20
0.0
 30
0.0
  0
INSERT
  5
12C
  8
DETAIL
  2
GRILLE
 10
755.0
 20
0.0
 30
0.0
  0
INSERT
  5
12D
  8
DETAIL
  2
GRILLE
 10
766.0
 20
0.0
 30
0.0
  0
INSERT
  5
12E
  8
DETAIL
  2
GRILLE
 10
777.0
 20
0.0
 30
0.0
  0
INSERT
  5
12F
  8
DETAIL
  2
GRILLE
 10
788.0
 20
0.0
 30
0.0
  0
INSERT
  5
130
  8
DETAIL
  2
GRILLE
 10
799.0
 20
0.0
 30
0.0
  0
INSERT
  5
131
  8
DETAIL
  2
GRILLE
 10
810.0
 20
0.0
 30
0.0
  0
INSERT
  5
132
  8
DETAIL
  2
GRILLE
 10
821.0
 20
0.0
 30
0.0
  0
INSERT
  5
133
  8
DETAIL
  2
GRILLE
 10
832.0
 20
0.0
 30
0.0
  0
INSERT
  5
134
  8
DETAIL
  2
GRILLE
 10
975.0
 20
0.0
 30
0.0
  0
INSERT
  5
135
  8
DETAIL
  2
GRILLE
 10
964.0
 20
0.0
 30
0.0
  0
INSERT
  5
136
  8
DETAIL
  2
GRILLE
 10
953.0
 20
0.0
 30
0.0
  0
INSERT
  5
137
  8
DETAIL
  2
GRILLE
 10
942.0
 20
0.0
 30
0.0
  0
INSERT
  5
138
  8
DETAIL
  2
GRILLE
 10
931.0
 20
0.0
 30
0.0
  0
INSERT
  5
139
  8
DETAIL
  2
GRILLE
 10
920.0
 20
0.0
 30
0.0
  0
INSERT
  5
13A
  8
DETAIL
  2
GRILLE
 10
909.0
 20
0.0
 30
0.0
  0
INSERT
  5
13B
  8
DETAIL
  2
GRILLE
 10
898.0
 20
0.0
 30
0.0
  0
INSERT
  5
13C
  8
DETAIL
  2
GRILLE
 10
887.0
 20
0.0
 30
0.0
  0
INSERT
  5
13D
  8
DETAIL
  2
GRILLE
 10
876.0
 20
0.0
 30
0.0
  0
INSERT
  5
13E
  8
DETAIL
  2
GRILLE
 10
865.0
 20
0.0
 30
0.0
  0
INSERT
  5
13F
  8
DETAIL
  2
GRILLE
 10
854.0
 20
0.0
 30
0.0
  0
INSERT
  5
140
  8
DETAIL
  2
GRILLE
 10
843.0
 20
0.0
 30
0.0
  0
INSERT
  5
141
  8
DETAIL
  2
GRILLE
 10
986.0
 20
0.0
 30
0.0
  0
INSERT
  5
142
  8
DETAIL
  2
GRILLE
 10
640.0
 20
0.0
 30
0.0
 41
-1.0
  0
INSERT
  5
143
  8
DETAIL
  2
GRILLE
 10
651.0
 20
0.0
 30
0.0
 41
-1.0
  0
INSERT
  5
144
  8
DETAIL
  2
GRILLE
 10
662.0
 20
0.0
 30
0.0
 41
-1.0
  0
INSERT
  5
145
  8
DETAIL
  2
GRILLE
 10
673.0
 20
0.0
 30
0.0
 41
-1.0
  0
INSERT
  5
146
  8
DETAIL
  2
GRILLE
 10
684.0
 20
0.0
 30
0.0
 41
-1.0
  0
INSERT
  5
147
  8
DETAIL
  2
GRILLE
 10
244.0
 20
0.0
 30
0.0
 41
-1.0
  0
INSERT
  5
148
  8
DETAIL
  2
GRILLE
 10
387.0
 20
0.0
 30
0.0
 41
-1.0
  0
INSERT
  5
149
  8
DETAIL
  2
GRILLE
 10
376.0
 20
0.0
 30
0.0
 41
-1.0
  0
INSERT
  5
14A
  8
DETAIL
  2
GRILLE
 10
365.0
 20
0.0
 30
0.0
 41
-1.0
  0
INSERT
  5
14B
  8
DETAIL
  2
GRILLE
 10
354.0
 20
0.0
 30
0.0
 41
-1.0
  0
INSERT
  5
14C
  8
DETAIL
  2
GRILLE
 10
343.0
 20
0.0
 30
0.0
 41
-1.0
  0
INSERT
  5
14D
  8
DETAIL
  2
GRILLE
 10
332.0
 20
0.0
 30
0.0
 41
-1.0
  0
INSERT
  5
14E
  8
DETAIL
  2
GRILLE
 10
321.0
 20
0.0
 30
0.0
 41
-1.0
  0
INSERT
  5
14F
  8
DETAIL
  2
GRILLE
 10
310.0
 20
0.0
 30
0.0
 41
-1.0
  0
INSERT
  5
150
  8
DETAIL
  2
GRILLE
 10
299.0
 20
0.0
 30
0.0
 41
-1.0
  0
INSERT
  5
151
  8
DETAIL
  2
GRILLE
 10
288.0
 20
0.0
 30
0.0
 41
-1.0
  0
INSERT
  5
152
  8
DETAIL
  2
GRILLE
 10
277.0
 20
0.0
 30
0.0
 41
-1.0
  0
INSERT
  5
153
  8
DETAIL
  2
GRILLE
 10
266.0
 20
0.0
 30
0.0
 41
-1.0
  0
INSERT
  5
154
  8
DETAIL
  2
GRILLE
 10
255.0
 20
0.0
 30
0.0
 41
-1.0
  0
INSERT
  5
155
  8
DETAIL
  2
GRILLE
 10
398.0
 20
0.0
 30
0.0
 41
-1.0
  0
INSERT
  5
156
  8
DETAIL
  2
GRILLE
 10
409.0
 20
0.0
 30
0.0
 41
-1.0
  0
INSERT
  5
157
  8
DETAIL
  2
GRILLE
 10
420.0
 20
0.0
 30
0.0
 41
-1.0
  0
INSERT
  5
158
  8
DETAIL
  2
GRILLE
 10
431.0
 20
0.0
 30
0.0
 41
-1.0
  0
INSERT
  5
159
  8
DETAIL
  2
GRILLE
 10
442.0
 20
0.0
 30
0.0
 41
-1.0
  0
INSERT
  5
15A
  8
DETAIL
  2
GRILLE
 10
453.0
 20
0.0
 30
0.0
 41
-1.0
  0
INSERT
  5
15B
  8
DETAIL
  2
GRILLE
 10
464.0
 20
0.0
 30
0.0
 41
-1.0
  0
INSERT
  5
15C
  8
DETAIL
  2
GRILLE
 10
475.0
 20
0.0
 30
0.0
 41
-1.0
  0
INSERT
  5
15D
  8
DETAIL
  2
GRILLE
 10
486.0
 20
0.0
 30
0.0
 41
-1.0
  0
INSERT
  5
15E
  8
DETAIL
  2
GRILLE
 10
497.0
 20
0.0
 30
0.0
 41
-1.0
  0
INSERT
  5
15F
  8
DETAIL
  2
GRILLE
 10
508.0
 20
0.0
 30
0.0
 41
-1.0
  0
INSERT
  5
160
  8
DETAIL
  2
GRILLE
 10
519.0
 20
0.0
 30
0.0
 41
-1.0
  0
INSERT
  5
161
  8
DETAIL
  2
GRILLE
 10
530.0
 20
0.0
 30
0.0
 41
-1.0
  0
INSERT
  5
162
  8
DETAIL
  2
GRILLE
 10
541.0
 20
0.0
 30
0.0
 41
-1.0
  0
INSERT
  5
163
  8
DETAIL
  2
GRILLE
 10
552.0
 20
0.0
 30
0.0
 41
-1.0
  0
INSERT
  5
164
  8
DETAIL
  2
GRILLE
 10
563.0
 20
0.0
 30
0.0
 41
-1.0
  0
INSERT
  5
165
  8
DETAIL
  2
GRILLE
 10
574.0
 20
0.0
 30
0.0
 41
-1.0
  0
INSERT
  5
166
  8
DETAIL
  2
GRILLE
 10
585.0
 20
0.0
 30
0.0
 41
-1.0
  0
INSERT
  5
167
  8
DETAIL
  2
GRILLE
 10
596.0
 20
0.0
 30
0.0
 41
-1.0
  0
INSERT
  5
168
  8
DETAIL
  2
GRILLE
 10
607.0
 20
0.0
 30
0.0
 41
-1.0
  0
INSERT
  5
169
  8
DETAIL
  2
GRILLE
 10
618.0
 20
0.0
 30
0.0
 41
-1.0
  0
INSERT
  5
16A
  8
DETAIL
  2
GRILLE
 10
629.0
 20
0.0
 30
0.0
 41
-1.0
  0
LINE
  5
16B
  8
DIMENSIONS
 10
171.0
 20
1222.402181
 30
0.0
 11
1060.0
 21
1222.402181
 31
0.0
  0
SOLID
  5
16C
  8
DIMENSIONS
 10
171.0
 20
1226.568848
 30
0.0
 11
171.0
 21
1218.235514
 31
0.0
 12
146.0
 22
1222.402181
 32
0.0
 13
146.0
 23
1222.402181
 33
0.0
  0
TEXT
  5
16D
  8
DIMENSIONS
 10
586.333333
 20
1245.30149
 30
0.0
 40
25.0
  1
939
  0
SOLID
  5
16E
  8
DIMENSIONS
 10
1060.0
 20
1226.568848
 30
0.0
 11
1060.0
 21
1218.235514
 31
0.0
 12
1085.0
 22
1222.402181
 32
0.0
 13
1085.0
 23
1222.402181
 33
0.0
  0
LINE
  5
16F
  8
DIMENSIONS
 10
146.0
 20
996.805468
 30
0.0
 11
146.0
 21
1237.402181
 31
0.0
  0
LINE
  5
170
  8
DETAIL
  6
DASHED
 10
1085.309163
 20
980.0
 30
0.0
 11
1085.309163
 21
965.0
 31
0.0
  0
LINE
  5
171
  8
DIMENSIONS
 10
1085.0
 20
995.247046
 30
0.0
 11
1085.0
 21
1237.402181
 31
0.0
  0
LINE
  5
172
  8
STELTXT
 10
-122.618883
 20
1252.015206
 30
0.0
 11
318.927939
 21
1252.015206
 31
0.0
  0
LINE
  5
177
  8
STELTXT
 10
1307.108519
 20
244.108519
 30
0.0
 11
2079.335249
 21
244.108519
 31
0.0
  0
LINE
  5
17F
  8
DETAIL
 10
1230.0
 20
727.0
 30
0.0
 11
0.0
 21
727.0
 31
0.0
  0
LINE
  5
180
  8
DETAIL
 10
1230.0
 20
762.0
 30
0.0
 11
0.0
 21
762.0
 31
0.0
  0
TEXT
  5
21B
  8
DIMENSIONS
 10
1505.0
 20
27.261905
 30
0.0
 40
25.0
  1
95
 50
90.0
  0
SOLID
  5
21C
  8
DIMENSIONS
 10
1450.833333
 20
70.0
 30
0.0
 11
1459.166667
 21
70.0
 31
0.0
 12
1455.0
 22
95.0
 32
0.0
 13
1455.0
 23
95.0
 33
0.0
  0
LINE
  5
224
  8
DIMENSIONS
 10
1455.0
 20
70.0
 30
0.0
 11
1455.0
 21
25.0
 31
0.0
  0
SOLID
  5
225
  8
DIMENSIONS
 10
1450.833333
 20
25.0
 30
0.0
 11
1459.166667
 21
25.0
 31
0.0
 12
1455.0
 22
0.0
 32
0.0
 13
1455.0
 23
0.0
 33
0.0
  0
LINE
  5
226
  8
DIMENSIONS
 10
1298.0
 20
95.0
 30
0.0
 11
1470.0
 21
95.0
 31
0.0
  0
TEXT
  5
28F
  8
STELTXT
 10
2086.776706
 20
232.850992
 30
0.0
 40
25.0
  1
GAS INLET 1 " BSP
  0
TEXT
  5
292
  8
STELTXT
 10
2327.319852
 20
236.574604
 30
0.0
 40
15.0
  1
/
  0
TEXT
  5
293
  8
STELTXT
 10
2336.812667
 20
233.862558
 30
0.0
 40
15.0
  1
2
  0
TEXT
  5
294
  8
STELTXT
 10
2320.539269
 20
242.676708
 30
0.0
 40
15.0
  1
1
  0
LINE
  5
2F9
  8
DETAIL
 10
1193.40951
 20
890.672281
 30
0.0
 11
972.29701
 21
890.672281
 31
0.0
  0
LINE
  5
2FA
  8
DETAIL
 10
972.29701
 20
989.947281
 30
0.0
 11
1193.40951
 21
989.947281
 31
0.0
  0
LINE
  5
2FF
  8
DETAIL
 10
972.29701
 20
989.947281
 30
0.0
 11
972.29701
 21
890.672281
 31
0.0
  0
LINE
  5
313
  8
DETAIL
 10
1193.40951
 20
989.947281
 30
0.0
 11
1193.40951
 21
890.672281
 31
0.0
  0
LINE
  5
31E
  8
DETAIL
 10
615.0
 20
1000.0
 30
0.0
 11
615.0
 21
762.0
 31
0.0
  0
TEXT
  5
325
  8
DIMENSIONS
  6
CONTINUOUS
 10
572.929521
 20
1064.373925
 30
0.0
 40
25.0
  1
%%c288
  0
LINE
  5
326
  8
DIMENSIONS
  6
CONTINUOUS
 10
471.5
 20
1039.373925
 30
0.0
 11
759.5
 21
1039.373925
 31
0.0
  0
LINE
  5
327
  8
DIMENSIONS
  6
CONTINUOUS
 10
471.5
 20
1015.0
 30
0.0
 11
471.5
 21
1054.373925
 31
0.0
  0
SOLID
  5
328
  8
DIMENSIONS
  6
CONTINUOUS
 10
496.5
 20
1043.540592
 30
0.0
 11
496.5
 21
1035.207258
 31
0.0
 12
471.5
 22
1039.373925
 32
0.0
 13
471.5
 23
1039.373925
 33
0.0
  0
LINE
  5
329
  8
DIMENSIONS
  6
CONTINUOUS
 10
759.5
 20
1015.0
 30
0.0
 11
759.5
 21
1054.373925
 31
0.0
  0
SOLID
  5
32A
  8
DIMENSIONS
  6
CONTINUOUS
 10
734.5
 20
1043.540592
 30
0.0
 11
734.5
 21
1035.207258
 31
0.0
 12
759.5
 22
1039.373925
 32
0.0
 13
759.5
 23
1039.373925
 33
0.0
  0
LINE
  5
32B
  8
DETAIL
  6
DASHED
 10
759.5
 20
1000.0
 30
0.0
 11
759.5
 21
980.0
 31
0.0
  0
LINE
  5
32C
  8
DETAIL
  6
DASHED
 10
471.5
 20
1000.0
 30
0.0
 11
471.5
 21
980.0
 31
0.0
  0
TEXT
  5
32D
  8
STELTXT
 10
1632.693855
 20
1099.851092
 30
0.0
 40
25.0
  1
1 x 2" SIDE FACING FLOW FLANGE
  0
LINE
  5
32E
  8
STELTXT
 10
1482.594518
 20
730.619618
 30
0.0
 11
1550.054557
 21
1112.774714
 31
0.0
  0
LINE
  5
32F
  8
STELTXT
 10
1608.8717
 20
1112.774714
 30
0.0
 11
1550.054557
 21
1112.774714
 31
0.0
  0
SOLID
  5
331
  8
STELTXT
 10
1486.697744
 20
729.895295
 30
0.0
 11
1478.491291
 21
731.343941
 31
0.0
 12
1478.248578
 22
706.00026
 32
0.0
 13
1478.248578
 23
706.00026
 33
0.0
  0
TEXT
  5
332
  8
STELTXT
 10
1471.046178
 20
418.130062
 30
0.0
 40
25.0
  1
1 x 2" SIDE FACING RETURN TAPPING
  0
LINE
  5
333
  8
STELTXT
 10
1112.287491
 20
356.902032
 30
0.0
 11
1381.685348
 21
429.680808
 31
0.0
  0
LINE
  5
334
  8
STELTXT
 10
1449.338263
 20
429.680808
 30
0.0
 11
1381.685348
 21
429.680808
 31
0.0
  0
SOLID
  5
335
  8
STELTXT
 10
1113.374174
 20
352.879566
 30
0.0
 11
1111.200808
 21
360.924498
 31
0.0
 12
1088.152697
 22
350.381933
 32
0.0
 13
1088.152697
 23
350.381933
 33
0.0
  0
TEXT
  5
336
  8
STELTXT
 10
-1064.814701
 20
1099.851092
 30
0.0
 40
25.0
  1
1 x 2" SIDE FACING FLOW FLANGE
  0
LINE
  5
337
  8
STELTXT
 10
-252.810602
 20
730.619618
 30
0.0
 11
-320.270641
 21
1112.774714
 31
0.0
  0
LINE
  5
338
  8
STELTXT
 10
-372.95954
 20
1112.774714
 30
0.0
 11
-320.270641
 21
1112.774714
 31
0.0
  0
LINE
  5
339
  8
STELTXT
 10
-382.668726
 20
1112.774714
 30
0.0
 11
-329.979828
 21
1112.774714
 31
0.0
  0
SOLID
  5
33A
  8
STELTXT
 10
-256.913828
 20
729.895295
 30
0.0
 11
-248.707375
 21
731.343941
 31
0.0
 12
-248.464662
 22
706.00026
 32
0.0
 13
-248.464662
 23
706.00026
 33
0.0
  0
LINE
  5
33B
  8
STELTXT
 10
117.496425
 20
356.902032
 30
0.0
 11
-151.901432
 21
429.680808
 31
0.0
  0
SOLID
  5
33C
  8
STELTXT
 10
116.409741
 20
352.879566
 30
0.0
 11
118.583108
 21
360.924498
 31
0.0
 12
141.631219
 22
350.381933
 32
0.0
 13
141.631219
 23
350.381933
 33
0.0
  0
TEXT
  5
33D
  8
STELTXT
 10
-969.833691
 20
418.130062
 30
0.0
 40
25.0
  1
1 x 2" SIDE FACING RETURN TAPPING
  0
LINE
  5
33E
  8
STELTXT
 10
-219.554347
 20
429.680808
 30
0.0
 11
-151.901432
 21
429.680808
 31
0.0
  0
ATTDEF
  5
372
  8
STELATT
 10
556.351836
 20
-544.324227
 30
0.0
 40
40.0
  1
CXSi 140
 72
     4
 11
649.685169
 21
-524.324227
 31
0.0
  3

  2
MODEL
 70
     2
  0
ATTDEF
  5
373
  8
STELATT
 10
576.588344
 20
-474.324227
 30
0.0
 40
40.0
  1
CONCORD 
 72
     4
 11
645.159772
 21
-454.324227
 31
0.0
  3

  2
TYPE
 70
     2
  0
ATTDEF
  5
374
  8
STELATT
 10
402.775659
 20
-404.324227
 30
0.0
 40
40.0
  1
IDEAL
 72
     4
 11
636.108992
 21
-384.324227
 31
0.0
  3

  2
MANUFACTURER
 70
     2
  0
LINE
  5
3AF
  8
FLHDR
 10
1394.312719
 20
745.0
 30
0.0
 11
1377.159667
 21
745.0
 31
0.0
  0
LINE
  5
3B0
  8
FLHDR
 10
1457.0
 20
665.0
 30
0.0
 11
1268.0
 21
665.0
 31
0.0
  0
LINE
  5
3B1
  8
FLHDR
 10
1260.0
 20
749.0
 30
0.0
 11
1260.0
 21
661.0
 31
0.0
  0
LINE
  5
3B2
  8
FLHDR
 10
1260.0
 20
665.0
 30
0.0
 11
1230.0
 21
665.0
 31
0.0
  0
LINE
  5
3B3
  8
FLHDR
 10
1264.0
 20
661.0
 30
0.0
 11
1260.0
 21
661.0
 31
0.0
  0
LINE
  5
3B4
  8
FLHDR
 10
1264.0
 20
661.0
 30
0.0
 11
1268.0
 21
665.0
 31
0.0
  0
LINE
  5
3B5
  8
FLHDR
 10
1299.367947
 20
745.0
 30
0.0
 11
1268.0
 21
745.0
 31
0.0
  0
LINE
  5
3B6
  8
FLHDR
 10
1260.0
 20
745.0
 30
0.0
 11
1230.0
 21
745.0
 31
0.0
  0
LINE
  5
3B7
  8
FLHDR
 10
1264.0
 20
749.0
 30
0.0
 11
1260.0
 21
749.0
 31
0.0
  0
LINE
  5
3B8
  8
FLHDR
 10
1264.0
 20
749.0
 30
0.0
 11
1268.0
 21
745.0
 31
0.0
  0
LINE
  5
3B9
  8
FLHDR
 10
1346.840333
 20
745.0
 30
0.0
 11
1329.687281
 21
745.0
 31
0.0
  0
LINE
  5
3BA
  8
FLHDR
 10
1299.367947
 20
753.0
 30
0.0
 11
1329.687281
 21
753.0
 31
0.0
  0
LINE
  5
3BB
  8
FLHDR
 10
1299.367947
 20
753.0
 30
0.0
 11
1299.367947
 21
745.0
 31
0.0
  0
LINE
  5
3BC
  8
FLHDR
 10
1329.687281
 20
753.0
 30
0.0
 11
1329.687281
 21
745.0
 31
0.0
  0
LINE
  5
3BD
  8
FLHDR
 10
1377.159667
 20
753.0
 30
0.0
 11
1346.840333
 21
753.0
 31
0.0
  0
LINE
  5
3BE
  8
FLHDR
 10
1346.840333
 20
753.0
 30
0.0
 11
1346.840333
 21
745.0
 31
0.0
  0
LINE
  5
3BF
  8
FLHDR
 10
1377.159667
 20
753.0
 30
0.0
 11
1377.159667
 21
745.0
 31
0.0
  0
LINE
  5
3C0
  8
FLHDR
 10
1457.0
 20
790.0
 30
0.0
 11
1457.0
 21
620.0
 31
0.0
  0
LINE
  5
3C1
  8
FLHDR
 10
1475.0
 20
790.0
 30
0.0
 11
1475.0
 21
620.0
 31
0.0
  0
LINE
  5
3C2
  8
FLHDR
 10
1475.0
 20
620.0
 30
0.0
 11
1457.0
 21
620.0
 31
0.0
  0
LINE
  5
3C3
  8
FLHDR
 10
1457.0
 20
745.0
 30
0.0
 11
1424.632053
 21
745.0
 31
0.0
  0
LINE
  5
3C4
  8
FLHDR
 10
1424.632053
 20
753.0
 30
0.0
 11
1394.312719
 21
753.0
 31
0.0
  0
LINE
  5
3C5
  8
FLHDR
 10
1394.312719
 20
753.0
 30
0.0
 11
1394.312719
 21
745.0
 31
0.0
  0
LINE
  5
3C6
  8
FLHDR
 10
1424.632053
 20
753.0
 30
0.0
 11
1424.632053
 21
745.0
 31
0.0
  0
LINE
  5
3C7
  8
FLHDR
 10
1475.0
 20
790.0
 30
0.0
 11
1457.0
 21
790.0
 31
0.0
  0
LINE
  5
3C8
  8
FLHDL
 10
-227.0
 20
790.0
 30
0.0
 11
-227.0
 21
620.0
 31
0.0
  0
LINE
  5
3C9
  8
FLHDL
 10
-30.0
 20
749.0
 30
0.0
 11
-30.0
 21
661.0
 31
0.0
  0
LINE
  5
3CA
  8
FLHDL
 10
-245.0
 20
790.0
 30
0.0
 11
-245.0
 21
620.0
 31
0.0
  0
LINE
  5
3CB
  8
FLHDL
 10
-227.0
 20
665.0
 30
0.0
 11
-38.0
 21
665.0
 31
0.0
  0
LINE
  5
3CC
  8
FLHDL
 10
-245.0
 20
620.0
 30
0.0
 11
-227.0
 21
620.0
 31
0.0
  0
LINE
  5
3CD
  8
FLHDL
 10
-30.0
 20
665.0
 30
0.0
 11
0.0
 21
665.0
 31
0.0
  0
LINE
  5
3CE
  8
FLHDL
 10
-34.0
 20
661.0
 30
0.0
 11
-30.0
 21
661.0
 31
0.0
  0
LINE
  5
3CF
  8
FLHDL
 10
-34.0
 20
661.0
 30
0.0
 11
-38.0
 21
665.0
 31
0.0
  0
LINE
  5
3D0
  8
FLHDL
 10
-69.367947
 20
745.0
 30
0.0
 11
-38.0
 21
745.0
 31
0.0
  0
LINE
  5
3D1
  8
FLHDL
 10
-164.312719
 20
745.0
 30
0.0
 11
-147.159667
 21
745.0
 31
0.0
  0
LINE
  5
3D2
  8
FLHDL
 10
-227.0
 20
745.0
 30
0.0
 11
-194.632053
 21
745.0
 31
0.0
  0
LINE
  5
3D3
  8
FLHDL
 10
-245.0
 20
790.0
 30
0.0
 11
-227.0
 21
790.0
 31
0.0
  0
LINE
  5
3D4
  8
FLHDL
 10
-194.632053
 20
753.0
 30
0.0
 11
-164.312719
 21
753.0
 31
0.0
  0
LINE
  5
3D5
  8
FLHDL
 10
-194.632053
 20
753.0
 30
0.0
 11
-194.632053
 21
745.0
 31
0.0
  0
LINE
  5
3D6
  8
FLHDL
 10
-164.312719
 20
753.0
 30
0.0
 11
-164.312719
 21
745.0
 31
0.0
  0
LINE
  5
3D7
  8
FLHDL
 10
-116.840333
 20
745.0
 30
0.0
 11
-99.687281
 21
745.0
 31
0.0
  0
LINE
  5
3D8
  8
FLHDL
 10
-147.159667
 20
753.0
 30
0.0
 11
-116.840333
 21
753.0
 31
0.0
  0
LINE
  5
3D9
  8
FLHDL
 10
-147.159667
 20
753.0
 30
0.0
 11
-147.159667
 21
745.0
 31
0.0
  0
LINE
  5
3DA
  8
FLHDL
 10
-116.840333
 20
753.0
 30
0.0
 11
-116.840333
 21
745.0
 31
0.0
  0
LINE
  5
3DB
  8
FLHDL
 10
-69.367947
 20
753.0
 30
0.0
 11
-99.687281
 21
753.0
 31
0.0
  0
LINE
  5
3DC
  8
FLHDL
 10
-99.687281
 20
753.0
 30
0.0
 11
-99.687281
 21
745.0
 31
0.0
  0
LINE
  5
3DD
  8
FLHDL
 10
-69.367947
 20
753.0
 30
0.0
 11
-69.367947
 21
745.0
 31
0.0
  0
LINE
  5
3DE
  8
FLHDL
 10
-30.0
 20
745.0
 30
0.0
 11
0.0
 21
745.0
 31
0.0
  0
LINE
  5
3DF
  8
FLHDL
 10
-34.0
 20
749.0
 30
0.0
 11
-30.0
 21
749.0
 31
0.0
  0
LINE
  5
3E0
  8
FLHDL
 10
-34.0
 20
749.0
 30
0.0
 11
-38.0
 21
745.0
 31
0.0
  0
CIRCLE
  5
3E7
  8
DETAIL
 10
1053.188804
 20
940.309781
 30
0.0
 40
3.5
  0
CIRCLE
  5
3E8
  8
DETAIL
 10
1059.505343
 20
915.49555
 30
0.0
 40
3.5
  0
CIRCLE
  5
3E9
  8
DETAIL
 10
1059.505343
 20
965.124012
 30
0.0
 40
3.5
  0
LINE
  5
3EA
  8
DETAIL
 10
1147.90951
 20
954.309781
 30
0.0
 11
1147.90951
 21
949.12864
 31
0.0
  0
CIRCLE
  5
3EB
  8
DETAIL
 10
1147.90951
 20
940.309781
 30
0.0
 40
14.0
  0
CIRCLE
  5
3EC
  8
DETAIL
 10
1096.010459
 20
940.309781
 30
0.0
 40
3.5
  0
LINE
  5
3F4
  8
CENTER
 10
1158.0
 20
170.0
 30
0.0
 11
1158.0
 21
20.0
 31
0.0
  0
LINE
  5
3F5
  8
CENTER
 10
1233.0
 20
95.0
 30
0.0
 11
1083.0
 21
95.0
 31
0.0
  0
LINE
  5
3F6
  8
STELTXT
 10
1175.67767
 20
112.67767
 30
0.0
 11
1307.108519
 21
244.108519
 31
0.0
  0
SOLID
  5
3F7
  8
STELTXT
 10
1172.731391
 20
115.623948
 30
0.0
 11
1178.623948
 21
109.731391
 31
0.0
 12
1158.0
 22
95.0
 32
0.0
 13
1158.0
 23
95.0
 33
0.0
  0
TEXT
  5
3F8
  8
DIMENSIONS
 10
1176.658959
 20
-110.327862
 30
0.0
 40
25.0
  1
72
  0
LINE
  5
3F9
  8
DIMENSIONS
 10
1173.482978
 20
-125.0
 30
0.0
 11
1223.479169
 21
-125.0
 31
0.0
  0
LINE
  5
3FA
  8
DIMENSIONS
 10
1158.0
 20
5.0
 30
0.0
 11
1158.0
 21
-140.0
 31
0.0
  0
SOLID
  5
3FB
  8
DIMENSIONS
 10
1183.0
 20
-129.166667
 30
0.0
 11
1183.0
 21
-120.833333
 31
0.0
 12
1158.0
 22
-125.0
 32
0.0
 13
1158.0
 23
-125.0
 33
0.0
  0
SOLID
  5
3FC
  8
DIMENSIONS
 10
1205.0
 20
-129.166667
 30
0.0
 11
1205.0
 21
-120.833333
 31
0.0
 12
1230.0
 22
-125.0
 32
0.0
 13
1230.0
 23
-125.0
 33
0.0
  0
ENDSEC
  0
EOF
