  0
SECTION
  2
HEADER
  9
$ACADVER
  1
AC1009
  9
$INSBASE
 10
0.0
 20
0.0
 30
0.0
  9
$EXTMIN
 10
-100.014629
 20
-544.442196
 30
0.0
  9
$EXTMAX
 10
1230.069727
 20
1036.033153
 30
0.0
  9
$LIMMIN
 10
0.0
 20
0.0
  9
$LIMMAX
 10
420.0
 20
297.0
  9
$ORTHOMODE
 70
     1
  9
$REGENMODE
 70
     1
  9
$FILLMODE
 70
     1
  9
$QTEXTMODE
 70
     0
  9
$MIRRTEXT
 70
     0
  9
$DRAGMODE
 70
     2
  9
$LTSCALE
 40
25.0
  9
$OSMODE
 70
     0
  9
$ATTMODE
 70
     1
  9
$TEXTSIZE
 40
3.0
  9
$TRACEWID
 40
10.0
  9
$TEXTSTYLE
  7
STANDARD
  9
$CLAYER
  8
0
  9
$CELTYPE
  6
BYLAYER
  9
$CECOLOR
 62
   256
  9
$DIMSCALE
 40
1.0
  9
$DIMASZ
 40
25.0
  9
$DIMEXO
 40
15.0
  9
$DIMDLI
 40
10.0
  9
$DIMRND
 40
0.0
  9
$DIMDLE
 40
1.25
  9
$DIMEXE
 40
15.0
  9
$DIMTP
 40
0.0
  9
$DIMTM
 40
0.0
  9
$DIMTXT
 40
25.0
  9
$DIMCEN
 40
-3.0
  9
$DIMTSZ
 40
0.0
  9
$DIMTOL
 70
     0
  9
$DIMLIM
 70
     0
  9
$DIMTIH
 70
     0
  9
$DIMTOH
 70
     0
  9
$DIMSE1
 70
     0
  9
$DIMSE2
 70
     0
  9
$DIMTAD
 70
     0
  9
$DIMZIN
 70
     1
  9
$DIMBLK
  1

  9
$DIMASO
 70
     0
  9
$DIMSHO
 70
     0
  9
$DIMPOST
  1

  9
$DIMAPOST
  1

  9
$DIMALT
 70
     0
  9
$DIMALTD
 70
     2
  9
$DIMALTF
 40
0.039
  9
$DIMLFAC
 40
1.0
  9
$DIMTOFL
 70
     0
  9
$DIMTVP
 40
1.5
  9
$DIMTIX
 70
     0
  9
$DIMSOXD
 70
     0
  9
$DIMSAH
 70
     0
  9
$DIMBLK1
  1

  9
$DIMBLK2
  1

  9
$DIMSTYLE
  2
-
  9
$DIMCLRD
 70
     0
  9
$DIMCLRE
 70
     0
  9
$DIMCLRT
 70
     0
  9
$DIMTFAC
 40
1.0
  9
$DIMGAP
 40
0.09
  9
$LUNITS
 70
     2
  9
$LUPREC
 70
     2
  9
$SKETCHINC
 40
10.0
  9
$FILLETRAD
 40
0.0
  9
$AUNITS
 70
     0
  9
$AUPREC
 70
     4
  9
$MENU
  1
acad
  9
$ELEVATION
 40
0.0
  9
$PELEVATION
 40
0.0
  9
$THICKNESS
 40
0.0
  9
$LIMCHECK
 70
     0
  9
$BLIPMODE
 70
     0
  9
$CHAMFERA
 40
0.0
  9
$CHAMFERB
 40
0.0
  9
$SKPOLY
 70
     1
  9
$TDCREATE
 40
2450098.618908
  9
$TDUPDATE
 40
2453073.533349
  9
$TDINDWG
 40
0.055703
  9
$TDUSRTIMER
 40
0.055703
  9
$USRTIMER
 70
     1
  9
$ANGBASE
 50
0.0
  9
$ANGDIR
 70
     0
  9
$PDMODE
 70
     3
  9
$PDSIZE
 40
0.0
  9
$PLINEWID
 40
0.0
  9
$COORDS
 70
     1
  9
$SPLFRAME
 70
     0
  9
$SPLINETYPE
 70
     6
  9
$SPLINESEGS
 70
     6
  9
$ATTDIA
 70
     0
  9
$ATTREQ
 70
     1
  9
$HANDLING
 70
 22529
  9
$HANDSEED
  5
3A0
  9
$SURFTAB1
 70
    12
  9
$SURFTAB2
 70
    12
  9
$SURFTYPE
 70
     6
  9
$SURFU
 70
    12
  9
$SURFV
 70
    12
  9
$UCSNAME
  2

  9
$UCSORG
 10
0.0
 20
0.0
 30
0.0
  9
$UCSXDIR
 10
1.0
 20
0.0
 30
0.0
  9
$UCSYDIR
 10
0.0
 20
1.0
 30
0.0
  9
$PUCSNAME
  2

  9
$PUCSORG
 10
0.0
 20
0.0
 30
0.0
  9
$PUCSXDIR
 10
1.0
 20
0.0
 30
0.0
  9
$PUCSYDIR
 10
0.0
 20
1.0
 30
0.0
  9
$USERI1
 70
     0
  9
$USERI2
 70
     0
  9
$USERI3
 70
     0
  9
$USERI4
 70
     0
  9
$USERI5
 70
     0
  9
$USERR1
 40
0.0
  9
$USERR2
 40
0.0
  9
$USERR3
 40
0.0
  9
$USERR4
 40
0.0
  9
$USERR5
 40
0.0
  9
$WORLDVIEW
 70
     0
  9
$SHADEDGE
 70
     3
  9
$SHADEDIF
 70
    70
  9
$TILEMODE
 70
     1
  9
$MAXACTVP
 70
    16
  9
$PLIMCHECK
 70
     0
  9
$PEXTMIN
 10
1.000000E+020
 20
1.000000E+020
 30
1.000000E+020
  9
$PEXTMAX
 10
-1.000000E+020
 20
-1.000000E+020
 30
-1.000000E+020
  9
$PLIMMIN
 10
0.0
 20
0.0
  9
$PLIMMAX
 10
12.0
 20
9.0
  9
$UNITMODE
 70
     0
  9
$VISRETAIN
 70
     0
  9
$PLINEGEN
 70
     0
  9
$PSLTSCALE
 70
     0
  0
ENDSEC
  0
SECTION
  2
TABLES
  0
TABLE
  2
VPORT
 70
     2
  0
VPORT
  2
*ACTIVE
 70
     0
 10
0.0
 20
0.0
 11
1.0
 21
1.0
 12
565.027549
 22
245.795478
 13
0.0
 23
0.0
 14
1000.0
 24
1000.0
 15
0.0
 25
0.0
 16
0.0
 26
0.0
 36
1.0
 17
0.0
 27
0.0
 37
0.0
 40
1598.676601
 41
1.825
 42
50.0
 43
0.0
 44
0.0
 50
0.0
 51
0.0
 71
     0
 72
  2000
 73
     1
 74
     2
 75
     0
 76
     0
 77
     0
 78
     0
  0
ENDTAB
  0
TABLE
  2
LTYPE
 70
     3
  0
LTYPE
  2
CONTINUOUS
 70
     0
  3
Solid line
 72
    65
 73
     0
 40
0.0
  0
LTYPE
  2
CENTER
 70
     0
  3
____ _ ____ _ ____ _ ____ _ ____ _ ____ _ ____
 72
    65
 73
     4
 40
2.0
 49
1.25
 49
-0.25
 49
0.25
 49
-0.25
  0
LTYPE
  2
DASHED
 70
     0
  3
__ __ __ __ __ __ __ __ __ __ __ __ __ __ __
 72
    65
 73
     2
 40
0.75
 49
0.5
 49
-0.25
  0
ENDTAB
  0
TABLE
  2
LAYER
 70
    14
  0
LAYER
  2
0
 70
     0
 62
     7
  6
CONTINUOUS
  0
LAYER
  2
DETAIL
 70
     0
 62
     2
  6
CONTINUOUS
  0
LAYER
  2
DIMENSIONS
 70
     1
 62
     7
  6
CONTINUOUS
  0
LAYER
  2
CENTER
 70
     1
 62
     4
  6
CENTER
  0
LAYER
  2
ORIGIN
 70
     0
 62
     6
  6
CONTINUOUS
  0
LAYER
  2
PLANNING
 70
     1
 62
     1
  6
DASHED
  0
LAYER
  2
STELTXT
 70
     1
 62
     4
  6
CONTINUOUS
  0
LAYER
  2
FLHDR
 70
     1
 62
     3
  6
CONTINUOUS
  0
LAYER
  2
FLHDL
 70
     1
 62
     3
  6
CONTINUOUS
  0
LAYER
  2
DIMFLHDL
 70
     1
 62
     7
  6
CONTINUOUS
  0
LAYER
  2
DIMFLHDR
 70
     1
 62
     7
  6
CONTINUOUS
  0
LAYER
  2
FLHDRTXT
 70
     1
 62
     3
  6
CONTINUOUS
  0
LAYER
  2
FLHDLTXT
 70
     1
 62
     3
  6
CONTINUOUS
  0
LAYER
  2
STELATT
 70
     0
 62
     7
  6
CONTINUOUS
  0
ENDTAB
  0
TABLE
  2
STYLE
 70
     1
  0
STYLE
  2
STANDARD
 70
     0
 40
0.0
 41
1.0
 50
0.0
 71
     0
 42
3.0
  3
simplex
  4

  0
ENDTAB
  0
TABLE
  2
VIEW
 70
     0
  0
ENDTAB
  0
TABLE
  2
UCS
 70
     0
  0
ENDTAB
  0
TABLE
  2
APPID
 70
     1
  0
APPID
  2
ACAD
 70
     0
  0
ENDTAB
  0
TABLE
  2
DIMSTYLE
 70
     1
  0
DIMSTYLE
  2
-
 70
     0
  3

  4

  5

  6

  7

 40
1.0
 41
0.18
 42
0.0625
 43
0.38
 44
0.18
 45
0.0
 46
0.0
 47
0.0
 48
0.0
140
0.18
141
0.09
142
0.0
143
25.4
144
1.0
145
0.0
146
1.0
147
0.09
 71
     0
 72
     0
 73
     1
 74
     1
 75
     0
 76
     0
 77
     0
 78
     0
170
     0
171
     2
172
     0
173
     0
174
     0
175
     0
176
     0
177
     0
178
     0
  0
ENDTAB
  0
ENDSEC
  0
SECTION
  2
BLOCKS
  0
BLOCK
  8
0
  2
$MODEL_SPACE
 70
     0
 10
0.0
 20
0.0
 30
0.0
  3
$MODEL_SPACE
  1

  0
ENDBLK
  5
210
  8
0
  0
BLOCK
 67
     1
  8
0
  2
$PAPER_SPACE
 70
     0
 10
0.0
 20
0.0
 30
0.0
  3
$PAPER_SPACE
  1

  0
ENDBLK
  5
20E
 67
     1
  8
0
  0
ENDSEC
  0
SECTION
  2
ENTITIES
  0
LINE
  5
35
  8
PLANNING
 10
-100.0
 20
1236.0
 30
0.0
 11
-100.0
 21
-750.0
 31
0.0
  0
LINE
  5
36
  8
PLANNING
 10
1330.0
 20
1236.0
 30
0.0
 11
1330.0
 21
-750.0
 31
0.0
  0
LINE
  5
37
  8
PLANNING
 10
-100.0
 20
1236.0
 30
0.0
 11
1330.0
 21
1236.0
 31
0.0
  0
LINE
  5
38
  8
PLANNING
 10
-100.0
 20
-750.0
 30
0.0
 11
1330.0
 21
-750.0
 31
0.0
  0
TEXT
  5
40
  8
DIMENSIONS
 10
575.714286
 20
-200.0
 30
0.0
 40
25.0
  1
1230
  0
SOLID
  5
41
  8
DIMENSIONS
 10
1205.0
 20
-229.166667
 30
0.0
 11
1205.0
 21
-220.833333
 31
0.0
 12
1230.0
 22
-225.0
 32
0.0
 13
1230.0
 23
-225.0
 33
0.0
  0
SOLID
  5
42
  8
DIMENSIONS
 10
25.0
 20
-229.166667
 30
0.0
 11
25.0
 21
-220.833333
 31
0.0
 12
0.0
 22
-225.0
 32
0.0
 13
0.0
 23
-225.0
 33
0.0
  0
LINE
  5
43
  8
DIMENSIONS
 10
25.0
 20
-225.0
 30
0.0
 11
1205.0
 21
-225.0
 31
0.0
  0
LINE
  5
44
  8
DIMENSIONS
 10
1230.0
 20
-63.765362
 30
0.0
 11
1230.0
 21
-240.0
 31
0.0
  0
LINE
  5
45
  8
DIMENSIONS
 10
0.0
 20
-15.0
 30
0.0
 11
0.0
 21
-240.0
 31
0.0
  0
LINE
  5
46
  8
DIMENSIONS
 10
1085.0
 20
626.0
 30
0.0
 11
1085.0
 21
-140.0
 31
0.0
  0
LINE
  5
47
  8
DIMENSIONS
 10
171.0
 20
-125.0
 30
0.0
 11
1060.0
 21
-125.0
 31
0.0
  0
SOLID
  5
48
  8
DIMENSIONS
 10
171.0
 20
-129.166667
 30
0.0
 11
171.0
 21
-120.833333
 31
0.0
 12
146.0
 22
-125.0
 32
0.0
 13
146.0
 23
-125.0
 33
0.0
  0
SOLID
  5
49
  8
DIMENSIONS
 10
1060.0
 20
-129.166667
 30
0.0
 11
1060.0
 21
-120.833333
 31
0.0
 12
1085.0
 22
-125.0
 32
0.0
 13
1085.0
 23
-125.0
 33
0.0
  0
TEXT
  5
4A
  8
DIMENSIONS
 10
586.333333
 20
-100.0
 30
0.0
 40
25.0
  1
939
  0
LINE
  5
4B
  8
DIMENSIONS
 10
146.0
 20
626.0
 30
0.0
 11
146.0
 21
-140.0
 31
0.0
  0
LINE
  5
4C
  8
CENTER
 10
1085.0
 20
791.0
 30
0.0
 11
1085.0
 21
641.0
 31
0.0
  0
LINE
  5
4D
  8
CENTER
 10
1160.0
 20
716.0
 30
0.0
 11
1010.0
 21
716.0
 31
0.0
  0
LINE
  5
4E
  8
CENTER
 10
146.0
 20
791.0
 30
0.0
 11
146.0
 21
641.0
 31
0.0
  0
POLYLINE
  5
50
  8
ORIGIN
 66
     1
 10
0.0
 20
0.0
 30
0.0
  0
VERTEX
  5
397
  8
ORIGIN
 10
0.0
 20
0.0
 30
0.0
  0
VERTEX
  5
398
  8
ORIGIN
 10
-100.0
 20
-100.0
 30
0.0
  0
VERTEX
  5
399
  8
ORIGIN
 10
-100.0
 20
100.0
 30
0.0
  0
VERTEX
  5
39A
  8
ORIGIN
 10
100.0
 20
-100.0
 30
0.0
  0
VERTEX
  5
39B
  8
ORIGIN
 10
100.0
 20
100.0
 30
0.0
  0
VERTEX
  5
39C
  8
ORIGIN
 10
0.0
 20
0.0
 30
0.0
  0
SEQEND
  5
39D
  8
ORIGIN
  0
TEXT
  5
5C
  8
DIMENSIONS
 10
1675.0
 20
437.714286
 30
0.0
 40
25.0
  1
1036
 50
90.0
  0
SOLID
  5
5D
  8
DIMENSIONS
 10
1704.166667
 20
1011.0
 30
0.0
 11
1695.833333
 21
1011.0
 31
0.0
 12
1700.0
 22
1036.0
 32
0.0
 13
1700.0
 23
1036.0
 33
0.0
  0
SOLID
  5
5E
  8
DIMENSIONS
 10
1704.166667
 20
25.0
 30
0.0
 11
1695.833333
 21
25.0
 31
0.0
 12
1700.0
 22
0.0
 32
0.0
 13
1700.0
 23
0.0
 33
0.0
  0
LINE
  5
5F
  8
DIMENSIONS
 10
1700.0
 20
25.0
 30
0.0
 11
1700.0
 21
1011.0
 31
0.0
  0
LINE
  5
60
  8
DIMENSIONS
 10
1715.0
 20
1036.0
 30
0.0
 11
1715.0
 21
1036.0
 31
0.0
  0
LINE
  5
61
  8
DIMENSIONS
 10
1245.0
 20
0.0
 30
0.0
 11
1715.0
 21
0.0
 31
0.0
  0
LINE
  5
66
  8
DIMENSIONS
 10
-310.0
 20
716.0
 30
0.0
 11
-310.0
 21
716.0
 31
0.0
  0
LINE
  5
68
  8
DETAIL
 10
146.0
 20
1036.0
 30
0.0
 11
146.0
 21
811.5
 31
0.0
  0
LINE
  5
69
  8
DETAIL
 10
1085.0
 20
1036.0
 30
0.0
 11
1085.0
 21
811.5
 31
0.0
  0
TEXT
  5
6A
  8
DIMENSIONS
 10
1430.0
 20
918.738095
 30
0.0
 40
25.0
  1
175
 50
90.0
  0
SOLID
  5
6B
  8
DIMENSIONS
 10
1459.166667
 20
886.0
 30
0.0
 11
1450.833333
 21
886.0
 31
0.0
 12
1455.0
 22
861.0
 32
0.0
 13
1455.0
 23
861.0
 33
0.0
  0
SOLID
  5
6C
  8
DIMENSIONS
 10
1459.166667
 20
1011.0
 30
0.0
 11
1450.833333
 21
1011.0
 31
0.0
 12
1455.0
 22
1036.0
 32
0.0
 13
1455.0
 23
1036.0
 33
0.0
  0
LINE
  5
6D
  8
DIMENSIONS
 10
1455.0
 20
1011.0
 30
0.0
 11
1455.0
 21
886.0
 31
0.0
  0
LINE
  5
6E
  8
DIMENSIONS
 10
870.0
 20
861.0
 30
0.0
 11
1470.0
 21
861.0
 31
0.0
  0
LINE
  5
6F
  8
CENTER
 10
793.5
 20
861.0
 30
0.0
 11
437.5
 21
861.0
 31
0.0
  0
LINE
  5
70
  8
CENTER
 10
615.5
 20
1039.0
 30
0.0
 11
615.5
 21
686.0
 31
0.0
  0
TEXT
  5
71
  8
DIMENSIONS
 10
572.047619
 20
1386.0
 30
0.0
 40
25.0
  1
%%C288
  0
SOLID
  5
72
  8
DIMENSIONS
 10
734.5
 20
1356.833333
 30
0.0
 11
734.5
 21
1365.166667
 31
0.0
 12
759.5
 22
1361.0
 32
0.0
 13
759.5
 23
1361.0
 33
0.0
  0
SOLID
  5
73
  8
DIMENSIONS
 10
496.5
 20
1356.833333
 30
0.0
 11
496.5
 21
1365.166667
 31
0.0
 12
471.5
 22
1361.0
 32
0.0
 13
471.5
 23
1361.0
 33
0.0
  0
LINE
  5
74
  8
DIMENSIONS
 10
471.5
 20
1361.0
 30
0.0
 11
734.5
 21
1361.0
 31
0.0
  0
LINE
  5
75
  8
DIMENSIONS
 10
759.5
 20
911.0
 30
0.0
 11
759.5
 21
1376.0
 31
0.0
  0
LINE
  5
76
  8
DIMENSIONS
 10
471.5
 20
911.0
 30
0.0
 11
471.5
 21
1376.0
 31
0.0
  0
LINE
  5
7E
  8
DIMENSIONS
 10
587.396581
 20
-50.0
 30
0.0
 11
-340.0
 21
-50.0
 31
0.0
  0
TEXT
  5
7F
  8
DIMENSIONS
 10
-350.0
 20
309.857143
 30
0.0
 40
25.0
  1
766
 50
90.0
  0
SOLID
  5
80
  8
DIMENSIONS
 10
-320.833333
 20
691.0
 30
0.0
 11
-329.166667
 21
691.0
 31
0.0
 12
-325.0
 22
716.0
 32
0.0
 13
-325.0
 23
716.0
 33
0.0
  0
SOLID
  5
81
  8
DIMENSIONS
 10
-320.833333
 20
-25.0
 30
0.0
 11
-329.166667
 21
-25.0
 31
0.0
 12
-325.0
 22
-50.0
 32
0.0
 13
-325.0
 23
-50.0
 33
0.0
  0
LINE
  5
82
  8
DIMENSIONS
 10
-325.0
 20
-25.0
 30
0.0
 11
-325.0
 21
691.0
 31
0.0
  0
LINE
  5
83
  8
DIMENSIONS
 10
56.0
 20
716.0
 30
0.0
 11
-340.0
 21
716.0
 31
0.0
  0
LINE
  5
84
  8
DIMENSIONS
 10
-15.0
 20
-50.0
 30
0.0
 11
-340.0
 21
-50.0
 31
0.0
  0
LINE
  5
86
  8
DETAIL
 10
750.724813
 20
811.5
 30
0.0
 11
1230.0
 21
811.5
 31
0.0
  0
LINE
  5
87
  8
DETAIL
 10
0.0
 20
811.5
 30
0.0
 11
480.275187
 21
811.5
 31
0.0
  0
LINE
  5
89
  8
DETAIL
 10
1230.0
 20
936.0
 30
0.0
 11
1230.0
 21
-50.0
 31
0.0
  0
LINE
  5
8A
  8
DETAIL
 10
0.0
 20
936.0
 30
0.0
 11
0.0
 21
0.0
 31
0.0
  0
LINE
  5
8B
  8
DETAIL
 10
146.0
 20
1036.0
 30
0.0
 11
1085.0
 21
1036.0
 31
0.0
  0
LINE
  5
8C
  8
DETAIL
 10
0.0
 20
0.0
 30
0.0
 11
1230.0
 21
0.0
 31
0.0
  0
TEXT
  5
EE
  8
STELTXT
 10
1142.09971
 20
1384.689384
 30
0.0
 40
25.0
  1
FLUE OUTLET
  0
LINE
  5
EF
  8
DIMFLHDR
 10
1490.0
 20
801.0
 30
0.0
 11
1502.310461
 21
801.0
 31
0.0
  0
LINE
  5
F0
  8
DIMFLHDR
 10
1490.0
 20
631.0
 30
0.0
 11
1773.00307
 21
631.0
 31
0.0
  0
LINE
  5
F1
  8
DIMFLHDR
 10
1763.380941
 20
801.0
 30
0.0
 11
1763.380941
 21
631.0
 31
0.0
  0
SOLID
  5
F2
  8
DIMFLHDR
 10
1767.547608
 20
776.0
 30
0.0
 11
1759.214275
 21
776.0
 31
0.0
 12
1763.380941
 22
801.0
 32
0.0
 13
1763.380941
 23
801.0
 33
0.0
  0
SOLID
  5
F3
  8
DIMFLHDR
 10
1767.547608
 20
656.0
 30
0.0
 11
1759.214275
 21
656.0
 31
0.0
 12
1763.380941
 22
631.0
 32
0.0
 13
1763.380941
 23
631.0
 33
0.0
  0
TEXT
  5
F4
  8
DIMFLHDR
 10
1738.380941
 20
686.238095
 30
0.0
 40
25.0
  1
170
 50
90.0
  0
LINE
  5
F5
  8
DIMFLHDR
 10
1230.0
 20
776.5
 30
0.0
 11
1230.0
 21
1151.0
 31
0.0
  0
LINE
  5
F6
  8
DIMFLHDR
 10
1475.0
 20
816.0
 30
0.0
 11
1475.0
 21
1151.0
 31
0.0
  0
LINE
  5
F7
  8
DIMFLHDR
 10
1255.0
 20
1136.0
 30
0.0
 11
1450.0
 21
1136.0
 31
0.0
  0
SOLID
  5
F8
  8
DIMFLHDR
 10
1255.0
 20
1131.833333
 30
0.0
 11
1255.0
 21
1140.166667
 31
0.0
 12
1230.0
 22
1136.0
 32
0.0
 13
1230.0
 23
1136.0
 33
0.0
  0
SOLID
  5
F9
  8
DIMFLHDR
 10
1450.0
 20
1131.833333
 30
0.0
 11
1450.0
 21
1140.166667
 31
0.0
 12
1475.0
 22
1136.0
 32
0.0
 13
1475.0
 23
1136.0
 33
0.0
  0
TEXT
  5
FA
  8
DIMFLHDR
 10
1320.357143
 20
1161.0
 30
0.0
 40
25.0
  1
245
  0
TEXT
  5
FB
  8
DIMFLHDL
 10
-154.642857
 20
1161.0
 30
0.0
 40
25.0
  1
245
  0
SOLID
  5
FC
  8
DIMFLHDL
 10
-220.0
 20
1131.833333
 30
0.0
 11
-220.0
 21
1140.166667
 31
0.0
 12
-245.0
 22
1136.0
 32
0.0
 13
-245.0
 23
1136.0
 33
0.0
  0
SOLID
  5
FD
  8
DIMFLHDL
 10
-25.0
 20
1131.833333
 30
0.0
 11
-25.0
 21
1140.166667
 31
0.0
 12
0.0
 22
1136.0
 32
0.0
 13
0.0
 23
1136.0
 33
0.0
  0
LINE
  5
FE
  8
DIMFLHDL
 10
-25.0
 20
1136.0
 30
0.0
 11
-220.0
 21
1136.0
 31
0.0
  0
LINE
  5
FF
  8
DIMFLHDL
 10
-245.0
 20
816.0
 30
0.0
 11
-245.0
 21
1151.0
 31
0.0
  0
LINE
  5
100
  8
DIMFLHDL
 10
0.0
 20
776.5
 30
0.0
 11
0.0
 21
1151.0
 31
0.0
  0
SOLID
  5
101
  8
DIMFLHDL
 10
-429.166667
 20
656.0
 30
0.0
 11
-420.833333
 21
656.0
 31
0.0
 12
-425.0
 22
631.0
 32
0.0
 13
-425.0
 23
631.0
 33
0.0
  0
SOLID
  5
102
  8
DIMFLHDL
 10
-429.166667
 20
776.0
 30
0.0
 11
-420.833333
 21
776.0
 31
0.0
 12
-425.0
 22
801.0
 32
0.0
 13
-425.0
 23
801.0
 33
0.0
  0
LINE
  5
103
  8
DIMFLHDL
 10
-425.0
 20
801.0
 30
0.0
 11
-425.0
 21
656.0
 31
0.0
  0
LINE
  5
104
  8
DIMFLHDL
 10
-259.0
 20
631.0
 30
0.0
 11
-440.0
 21
631.0
 31
0.0
  0
LINE
  5
105
  8
DIMFLHDL
 10
-259.0
 20
801.0
 30
0.0
 11
-425.0
 21
801.0
 31
0.0
  0
TEXT
  5
106
  8
DIMFLHDL
 10
-450.0
 20
686.238095
 30
0.0
 40
25.0
  1
170
 50
90.0
  0
LINE
  5
107
  8
DIMFLHDL
 10
-385.0
 20
801.0
 30
0.0
 11
-440.0
 21
801.0
 31
0.0
  0
SOLID
  5
108
  8
STELTXT
 10
633.59943
 20
878.741808
 30
0.0
 11
626.866983
 21
883.652877
 31
0.0
 12
615.5
 22
861.0
 32
0.0
 13
615.5
 23
861.0
 33
0.0
  0
LINE
  5
109
  8
STELTXT
 10
630.233206
 20
881.197342
 30
0.0
 11
1067.984358
 21
1396.989564
 31
0.0
  0
LINE
  5
10A
  8
STELTXT
 10
1067.984358
 20
1396.989564
 30
0.0
 11
1121.183417
 21
1396.989564
 31
0.0
  0
LINE
  5
10B
  8
DIMENSIONS
 10
1101.707218
 20
1036.0
 30
0.0
 11
1715.0
 21
1036.0
 31
0.0
  0
LINE
  5
10E
  8
DETAIL
 10
0.0
 20
936.0
 30
0.0
 11
146.0
 21
936.0
 31
0.0
  0
LINE
  5
10F
  8
DETAIL
 10
1085.0
 20
936.0
 30
0.0
 11
1230.0
 21
936.0
 31
0.0
  0
TEXT
  5
110
  8
STELTXT
 10
-692.380307
 20
1079.419254
 30
0.0
 40
25.0
  1
DRAUGHT SKIRT
  0
LINE
  5
111
  8
STELTXT
 10
-87.79597
 20
1092.365812
 30
0.0
 11
-304.351568
 21
1092.365812
 31
0.0
  0
LINE
  5
114
  8
STELTXT
 10
-21.029237
 20
975.599079
 30
0.0
 11
-87.79597
 21
1092.365812
 31
0.0
  0
SOLID
  5
115
  8
STELTXT
 10
-18.082959
 20
978.545357
 30
0.0
 11
-23.975516
 21
972.652801
 31
0.0
 12
-3.351568
 22
957.92141
 32
0.0
 13
-3.351568
 23
957.92141
 33
0.0
  0
LINE
  5
11A
  8
DIMENSIONS
  6
CONTINUOUS
 10
115.473059
 20
716.0
 30
0.0
 11
111.053669
 21
716.0
 31
0.0
  0
LINE
  5
11B
  8
DIMENSIONS
  6
CONTINUOUS
 10
115.473059
 20
936.0
 30
0.0
 11
111.053669
 21
936.0
 31
0.0
  0
LINE
  5
11C
  8
DIMENSIONS
  6
CONTINUOUS
 10
126.053669
 20
741.0
 30
0.0
 11
126.053669
 21
911.0
 31
0.0
  0
SOLID
  5
11D
  8
DIMENSIONS
  6
CONTINUOUS
 10
121.887002
 20
741.0
 30
0.0
 11
130.220336
 21
741.0
 31
0.0
 12
126.053669
 22
716.0
 32
0.0
 13
126.053669
 23
716.0
 33
0.0
  0
SOLID
  5
11E
  8
DIMENSIONS
  6
CONTINUOUS
 10
121.887002
 20
911.0
 30
0.0
 11
130.220336
 21
911.0
 31
0.0
 12
126.053669
 22
936.0
 32
0.0
 13
126.053669
 23
936.0
 33
0.0
  0
TEXT
  5
11F
  8
DIMENSIONS
  6
CONTINUOUS
 10
118.02593
 20
814.080475
 30
0.0
 40
25.0
  1
220
 50
90.0
  0
TEXT
  5
180
  8
STELTXT
 10
1555.720139
 20
1072.724292
 30
0.0
 40
25.0
  1
GAS INLET 1 " BSP
  0
LINE
  5
181
  8
STELTXT
 10
1428.60381
 20
1083.981819
 30
0.0
 11
1535.548542
 21
1083.981819
 31
0.0
  0
TEXT
  5
182
  8
STELTXT
 10
1791.697356
 20
1082.582484
 30
0.0
 40
15.0
  1
1
  0
TEXT
  5
183
  8
STELTXT
 10
1798.477938
 20
1076.48038
 30
0.0
 40
15.0
  1
/
  0
TEXT
  5
184
  8
STELTXT
 10
1807.970754
 20
1073.768334
 30
0.0
 40
15.0
  1
2
  0
LINE
  5
185
  8
STELTXT
 10
1250.29966
 20
855.67767
 30
0.0
 11
1428.60381
 21
1083.981819
 31
0.0
  0
LINE
  5
186
  8
CENTER
 10
1175.163507
 20
838.0
 30
0.0
 11
1325.163507
 21
838.0
 31
0.0
  0
SOLID
  5
187
  8
STELTXT
 10
1247.353382
 20
858.623948
 30
0.0
 11
1253.245939
 21
852.731391
 31
0.0
 12
1232.621991
 22
838.0
 32
0.0
 13
1232.621991
 23
838.0
 33
0.0
  0
LINE
  5
188
  8
DIMENSIONS
 10
1346.163527
 20
838.0
 30
0.0
 11
1556.754019
 21
838.0
 31
0.0
  0
SOLID
  5
189
  8
DIMENSIONS
 10
1543.747781
 20
813.0
 30
0.0
 11
1552.081114
 21
813.0
 31
0.0
 12
1547.914447
 22
838.0
 32
0.0
 13
1547.914447
 23
838.0
 33
0.0
  0
LINE
  5
18A
  8
DIMENSIONS
 10
1547.914447
 20
838.0
 30
0.0
 11
1547.914447
 21
716.0
 31
0.0
  0
TEXT
  5
18B
  8
DIMENSIONS
 10
1534.252708
 20
747.238095
 30
0.0
 40
25.0
  1
122
 50
90.0
  0
SOLID
  5
18C
  8
DIMENSIONS
 10
1543.747781
 20
741.0
 30
0.0
 11
1552.081114
 21
741.0
 31
0.0
 12
1547.914447
 22
716.0
 32
0.0
 13
1547.914447
 23
716.0
 33
0.0
  0
LINE
  5
18D
  8
CENTER
  6
CENTER
 10
1061.052666
 20
716.0
 30
0.0
 11
1556.754019
 21
716.0
 31
0.0
  0
LINE
  5
18F
  8
STELTXT
 10
1101.301883
 20
694.647368
 30
0.0
 11
1500.086716
 21
39.765325
 31
0.0
  0
SOLID
  5
190
  8
STELTXT
 10
1097.743111
 20
692.480284
 30
0.0
 11
1104.860655
 21
696.814452
 31
0.0
 12
1088.299379
 22
716.0
 32
0.0
 13
1088.299379
 23
716.0
 33
0.0
  0
LINE
  5
191
  8
STELTXT
 10
1488.17861
 20
694.647368
 30
0.0
 11
1797.726804
 21
186.309194
 31
0.0
  0
SOLID
  5
192
  8
STELTXT
 10
1484.619838
 20
692.480284
 30
0.0
 11
1491.737382
 21
696.814452
 31
0.0
 12
1475.176107
 22
716.0
 32
0.0
 13
1475.176107
 23
716.0
 33
0.0
  0
TEXT
  5
193
  8
STELTXT
 10
1875.379044
 20
176.607653
 30
0.0
 40
25.0
  1
1 x 2" SIDE FACING FLOW FLANGE
  0
LINE
  5
194
  8
STELTXT
 10
1797.726804
 20
186.309194
 30
0.0
 11
1846.652805
 21
186.309194
 31
0.0
  0
TEXT
  5
195
  8
STELTXT
 10
1875.379044
 20
28.091082
 30
0.0
 40
25.0
  1
1 x 2" SIDE FACING RETURN TAPPING
  0
LINE
  5
196
  8
STELTXT
 10
1500.086716
 20
39.765325
 30
0.0
 11
1846.652805
 21
39.765325
 31
0.0
  0
LINE
  5
197
  8
STELTXT
 10
-263.63417
 20
694.647368
 30
0.0
 11
-573.182364
 21
186.309194
 31
0.0
  0
SOLID
  5
198
  8
STELTXT
 10
-260.075398
 20
692.480284
 30
0.0
 11
-267.192942
 21
696.814452
 31
0.0
 12
-250.631666
 22
716.0
 32
0.0
 13
-250.631666
 23
716.0
 33
0.0
  0
LINE
  5
199
  8
STELTXT
 10
130.452137
 20
694.647368
 30
0.0
 11
-268.332696
 21
39.765325
 31
0.0
  0
SOLID
  5
19A
  8
STELTXT
 10
134.010909
 20
692.480284
 30
0.0
 11
126.893365
 21
696.814452
 31
0.0
 12
143.45464
 22
716.0
 32
0.0
 13
143.45464
 23
716.0
 33
0.0
  0
LINE
  5
19B
  8
STELTXT
 10
-268.332696
 20
39.765325
 30
0.0
 11
-614.898786
 21
39.765325
 31
0.0
  0
TEXT
  5
19C
  8
STELTXT
 10
-1305.529786
 20
176.607653
 30
0.0
 40
25.0
  1
1 x 2" SIDE FACING FLOW FLANGE
  0
TEXT
  5
19D
  8
STELTXT
 10
-1372.196453
 20
28.091082
 30
0.0
 40
25.0
  1
1 x 2" SIDE FACING RETURN TAPPING
  0
LINE
  5
19E
  8
STELTXT
 10
-573.182364
 20
186.309194
 30
0.0
 11
-614.898786
 21
186.309194
 31
0.0
  0
LINE
  5
19F
  8
DETAIL
 10
630.0
 20
-50.0
 30
0.0
 11
1230.0
 21
-50.0
 31
0.0
  0
LINE
  5
1A1
  8
STELTXT
 10
1268.481878
 20
-31.940758
 30
0.0
 11
1843.399385
 21
-31.487688
 31
0.0
  0
SOLID
  5
1A2
  8
STELTXT
 10
1268.485162
 20
-36.107423
 30
0.0
 11
1268.478595
 21
-27.774093
 31
0.0
 12
1243.481886
 22
-31.960459
 32
0.0
 13
1243.481886
 23
-31.960459
 33
0.0
  0
TEXT
  5
1A3
  8
STELTXT
 10
1871.745729
 20
-43.676513
 30
0.0
 40
25.0
  1
OVERHANGING CONTROL PANEL
  0
LINE
  5
1A4
  8
DETAIL
 10
630.0
 20
0.0
 30
0.0
 11
630.0
 21
-50.0
 31
0.0
  0
LINE
  5
1A5
  8
DIMFLHDR
 10
1538.931557
 20
801.0
 30
0.0
 11
1773.00307
 21
801.0
 31
0.0
  0
ATTDEF
  5
1DD
  8
STELATT
 10
538.203258
 20
-544.324227
 30
0.0
 40
40.0
  1
CXSi 140
 72
     4
 11
631.536591
 21
-524.324227
 31
0.0
  3

  2
MODEL
 70
     2
  0
ATTDEF
  5
1DE
  8
STELATT
 10
552.30148
 20
-474.324227
 30
0.0
 40
40.0
  1
CONCORD 
 72
     4
 11
620.872908
 21
-454.324227
 31
0.0
  3

  2
TYPE
 70
     2
  0
ATTDEF
  5
1DF
  8
STELATT
 10
387.539575
 20
-404.324227
 30
0.0
 40
40.0
  1
IDEAL
 72
     4
 11
620.872908
 21
-384.324227
 31
0.0
  3

  2
MANUFACTURER
 70
     2
  0
LINE
  5
21A
  8
FLHDRTXT
 10
1395.525181
 20
572.086843
 30
0.0
 11
2041.280288
 21
572.086843
 31
0.0
  0
LINE
  5
21B
  8
FLHDRTXT
 10
1501.0
 20
651.760039
 30
0.0
 11
2020.212684
 21
651.760039
 31
0.0
  0
LINE
  5
21C
  8
FLHDRTXT
 10
1300.5
 20
410.94662
 30
0.0
 11
1912.085123
 21
410.94662
 31
0.0
  0
LINE
  5
21D
  8
FLHDR
 10
1457.0
 20
756.0
 30
0.0
 11
1268.0
 21
756.0
 31
0.0
  0
LINE
  5
21E
  8
FLHDR
 10
1396.973214
 20
698.5
 30
0.0
 11
1299.5
 21
698.5
 31
0.0
  0
LINE
  5
21F
  8
FLHDR
 10
1396.973214
 20
733.5
 30
0.0
 11
1299.5
 21
733.5
 31
0.0
  0
LINE
  5
220
  8
FLHDR
 10
1457.0
 20
676.0
 30
0.0
 11
1268.0
 21
676.0
 31
0.0
  0
LINE
  5
221
  8
FLHDRTXT
 10
1300.5
 20
684.65
 30
0.0
 11
1300.5
 21
410.94662
 31
0.0
  0
ARC
  5
222
  8
FLHDR
 10
1299.5
 20
716.0
 30
0.0
 40
17.5
 50
90.0
 51
270.0
  0
LINE
  5
223
  8
FLHDR
 10
1260.0
 20
760.0
 30
0.0
 11
1260.0
 21
672.0
 31
0.0
  0
LINE
  5
224
  8
FLHDR
 10
1260.0
 20
676.0
 30
0.0
 11
1230.0
 21
676.0
 31
0.0
  0
SOLID
  5
225
  8
FLHDRTXT
 10
1304.666667
 20
684.65
 30
0.0
 11
1296.333333
 21
684.65
 31
0.0
 12
1300.5
 22
709.65
 32
0.0
 13
1300.5
 23
709.65
 33
0.0
  0
LINE
  5
226
  8
FLHDR
 10
1264.0
 20
672.0
 30
0.0
 11
1268.0
 21
676.0
 31
0.0
  0
LINE
  5
227
  8
FLHDR
 10
1264.0
 20
672.0
 30
0.0
 11
1260.0
 21
672.0
 31
0.0
  0
CIRCLE
  5
228
  8
FLHDR
 10
1299.5
 20
716.0
 30
0.0
 40
6.35
  0
LINE
  5
229
  8
FLHDR
 10
1260.0
 20
756.0
 30
0.0
 11
1230.0
 21
756.0
 31
0.0
  0
LINE
  5
22A
  8
FLHDR
 10
1264.0
 20
760.0
 30
0.0
 11
1268.0
 21
756.0
 31
0.0
  0
LINE
  5
22B
  8
FLHDR
 10
1264.0
 20
760.0
 30
0.0
 11
1260.0
 21
760.0
 31
0.0
  0
SOLID
  5
22C
  8
FLHDRTXT
 10
1501.0
 20
655.926705
 30
0.0
 11
1501.0
 21
647.593372
 31
0.0
 12
1476.0
 22
651.760039
 32
0.0
 13
1476.0
 23
651.760039
 33
0.0
  0
LINE
  5
22D
  8
FLHDRTXT
 10
1347.981112
 20
684.65
 30
0.0
 11
1347.981112
 21
491.516731
 31
0.0
  0
LINE
  5
22E
  8
FLHDRTXT
 10
1395.525181
 20
698.5
 30
0.0
 11
1395.525181
 21
572.086843
 31
0.0
  0
LINE
  5
22F
  8
FLHDR
 10
1457.0
 20
801.0
 30
0.0
 11
1457.0
 21
631.0
 31
0.0
  0
LINE
  5
230
  8
FLHDR
 10
1475.0
 20
801.0
 30
0.0
 11
1475.0
 21
631.0
 31
0.0
  0
LINE
  5
231
  8
FLHDRTXT
 10
1347.981112
 20
491.516731
 30
0.0
 11
1846.792943
 21
491.516731
 31
0.0
  0
LINE
  5
232
  8
FLHDR
 10
1475.0
 20
631.0
 30
0.0
 11
1457.0
 21
631.0
 31
0.0
  0
ARC
  5
233
  8
FLHDR
 10
1396.973214
 20
716.0
 30
0.0
 40
17.5
 50
270.0
 51
90.0
  0
SOLID
  5
234
  8
FLHDRTXT
 10
1351.479399
 20
684.65
 30
0.0
 11
1343.146066
 21
684.65
 31
0.0
 12
1347.312733
 22
709.65
 32
0.0
 13
1347.312733
 23
709.65
 33
0.0
  0
CIRCLE
  5
235
  8
FLHDR
 10
1346.312733
 20
716.0
 30
0.0
 40
6.35
  0
SOLID
  5
236
  8
FLHDRTXT
 10
1400.128841
 20
682.841162
 30
0.0
 11
1391.795508
 21
682.841162
 31
0.0
 12
1395.962174
 22
707.841162
 32
0.0
 13
1395.962174
 23
707.841162
 33
0.0
  0
CIRCLE
  5
237
  8
FLHDR
 10
1396.973214
 20
716.0
 30
0.0
 40
6.35
  0
LINE
  5
238
  8
FLHDR
 10
1475.0
 20
801.0
 30
0.0
 11
1457.0
 21
801.0
 31
0.0
  0
TEXT
  5
239
  8
FLHDRTXT
 10
2049.296695
 20
638.11954
 30
0.0
 40
25.0
  1
2" FLANGED OUTLET BSP
  0
TEXT
  5
23A
  8
FLHDRTXT
 10
2065.963362
 20
558.11954
 30
0.0
 40
25.0
  1
  " BSP FOR OPEN VENT
  0
TEXT
  5
23B
  8
FLHDRTXT
 10
1939.772886
 20
398.11954
 30
0.0
 40
25.0
  1
  " BSP FOR PRESSURE GAUGE
  0
TEXT
  5
23C
  8
FLHDRTXT
 10
1868.344314
 20
478.11954
 30
0.0
 40
25.0
  1
  " BSP FOR THERMOSTAT POCKET
  0
TEXT
  5
23D
  8
FLHDRTXT
 10
1972.781654
 20
397.873504
 30
0.0
 40
15.0
  1
2
  0
TEXT
  5
23E
  8
FLHDRTXT
 10
1954.008256
 20
406.687654
 30
0.0
 40
15.0
  1
1
  0
TEXT
  5
23F
  8
FLHDRTXT
 10
1960.788839
 20
400.58555
 30
0.0
 40
15.0
  1
/
  0
TEXT
  5
240
  8
FLHDRTXT
 10
1906.054728
 20
477.873504
 30
0.0
 40
15.0
  1
2
  0
TEXT
  5
241
  8
FLHDRTXT
 10
1887.281329
 20
486.687654
 30
0.0
 40
15.0
  1
1
  0
TEXT
  5
242
  8
FLHDRTXT
 10
1894.061912
 20
480.58555
 30
0.0
 40
15.0
  1
/
  0
TEXT
  5
243
  8
FLHDRTXT
 10
2079.073998
 20
566.687654
 30
0.0
 40
15.0
  1
1
  0
TEXT
  5
244
  8
FLHDRTXT
 10
2085.85458
 20
560.58555
 30
0.0
 40
15.0
  1
/
  0
TEXT
  5
245
  8
FLHDRTXT
 10
2097.847396
 20
557.873504
 30
0.0
 40
15.0
  1
2
  0
LINE
  5
246
  8
FLHDLTXT
 10
-270.0
 20
651.760039
 30
0.0
 11
-644.212684
 21
651.760039
 31
0.0
  0
LINE
  5
247
  8
FLHDLTXT
 10
-164.873172
 20
572.086843
 30
0.0
 11
-665.280288
 21
572.086843
 31
0.0
  0
LINE
  5
248
  8
FLHDLTXT
 10
-69.5
 20
410.94662
 30
0.0
 11
-536.085123
 21
410.94662
 31
0.0
  0
TEXT
  5
249
  8
FLHDLTXT
 10
-1175.677648
 20
478.11954
 30
0.0
 40
25.0
  1
  " BSP FOR THERMOSTAT POCKET
  0
TEXT
  5
24A
  8
FLHDLTXT
 10
-1162.834859
 20
638.11954
 30
0.0
 40
25.0
  1
2" FLANGED OUTLET BSP
  0
TEXT
  5
24B
  8
FLHDLTXT
 10
-1175.677648
 20
558.11954
 30
0.0
 40
25.0
  1
  " BSP FOR OPEN VENT
  0
TEXT
  5
24C
  8
FLHDLTXT
 10
-1175.677648
 20
398.11954
 30
0.0
 40
25.0
  1
  " BSP FOR PRESSURE GAUGE
  0
TEXT
  5
24D
  8
FLHDLTXT
 10
-1141.647243
 20
397.873504
 30
0.0
 40
15.0
  1
2
  0
TEXT
  5
24E
  8
FLHDLTXT
 10
-1160.420641
 20
406.687654
 30
0.0
 40
15.0
  1
1
  0
TEXT
  5
24F
  8
FLHDLTXT
 10
-1153.640058
 20
400.58555
 30
0.0
 40
15.0
  1
/
  0
TEXT
  5
250
  8
FLHDLTXT
 10
-1141.647243
 20
477.873504
 30
0.0
 40
15.0
  1
2
  0
TEXT
  5
251
  8
FLHDLTXT
 10
-1160.420641
 20
486.687654
 30
0.0
 40
15.0
  1
1
  0
TEXT
  5
252
  8
FLHDLTXT
 10
-1153.640058
 20
480.58555
 30
0.0
 40
15.0
  1
/
  0
TEXT
  5
253
  8
FLHDLTXT
 10
-1160.420641
 20
566.687654
 30
0.0
 40
15.0
  1
1
  0
TEXT
  5
254
  8
FLHDLTXT
 10
-1153.640058
 20
560.58555
 30
0.0
 40
15.0
  1
/
  0
TEXT
  5
255
  8
FLHDLTXT
 10
-1141.647243
 20
557.873504
 30
0.0
 40
15.0
  1
2
  0
SOLID
  5
256
  8
FLHDLTXT
 10
-270.0
 20
655.926705
 30
0.0
 11
-270.0
 21
647.593372
 31
0.0
 12
-245.0
 22
651.760039
 32
0.0
 13
-245.0
 23
651.760039
 33
0.0
  0
LINE
  5
257
  8
FLHDLTXT
 10
-69.5
 20
684.65
 30
0.0
 11
-69.5
 21
410.94662
 31
0.0
  0
LINE
  5
258
  8
FLHDLTXT
 10
-116.3763
 20
698.5
 30
0.0
 11
-116.3763
 21
491.516731
 31
0.0
  0
LINE
  5
259
  8
FLHDLTXT
 10
-164.873172
 20
698.5
 30
0.0
 11
-164.873172
 21
572.086843
 31
0.0
  0
LINE
  5
25A
  8
FLHDL
 10
-244.0
 20
801.0
 30
0.0
 11
-244.0
 21
631.0
 31
0.0
  0
LINE
  5
25B
  8
FLHDL
 10
-226.0
 20
801.0
 30
0.0
 11
-226.0
 21
631.0
 31
0.0
  0
LINE
  5
25C
  8
FLHDLTXT
 10
-116.3763
 20
491.516731
 30
0.0
 11
-470.792943
 21
491.516731
 31
0.0
  0
LINE
  5
25D
  8
FLHDL
 10
-244.0
 20
631.0
 30
0.0
 11
-226.0
 21
631.0
 31
0.0
  0
LINE
  5
25E
  8
FLHDL
 10
-226.0
 20
756.0
 30
0.0
 11
-37.0
 21
756.0
 31
0.0
  0
LINE
  5
25F
  8
FLHDL
 10
-226.0
 20
676.0
 30
0.0
 11
-37.0
 21
676.0
 31
0.0
  0
LINE
  5
260
  8
FLHDL
 10
-244.0
 20
801.0
 30
0.0
 11
-226.0
 21
801.0
 31
0.0
  0
LINE
  5
261
  8
FLHDL
 10
-165.973214
 20
733.5
 30
0.0
 11
-68.5
 21
733.5
 31
0.0
  0
LINE
  5
262
  8
FLHDL
 10
-165.973214
 20
698.5
 30
0.0
 11
-68.5
 21
698.5
 31
0.0
  0
ARC
  5
263
  8
FLHDL
 10
-165.973214
 20
716.0
 30
0.0
 40
17.5
 50
90.0
 51
270.0
  0
SOLID
  5
264
  8
FLHDRTXT
 10
-169.128841
 20
682.841162
 30
0.0
 11
-160.795508
 21
682.841162
 31
0.0
 12
-164.962174
 22
707.841162
 32
0.0
 13
-164.962174
 23
707.841162
 33
0.0
  0
CIRCLE
  5
265
  8
FLHDL
 10
-165.973214
 20
716.0
 30
0.0
 40
6.35
  0
SOLID
  5
266
  8
FLHDRTXT
 10
-120.479399
 20
684.65
 30
0.0
 11
-112.146066
 21
684.65
 31
0.0
 12
-116.312733
 22
709.65
 32
0.0
 13
-116.312733
 23
709.65
 33
0.0
  0
CIRCLE
  5
267
  8
FLHDL
 10
-115.312733
 20
716.0
 30
0.0
 40
6.35
  0
ARC
  5
268
  8
FLHDL
 10
-68.5
 20
716.0
 30
0.0
 40
17.5
 50
270.0
 51
90.0
  0
LINE
  5
269
  8
FLHDL
 10
-29.0
 20
760.0
 30
0.0
 11
-29.0
 21
672.0
 31
0.0
  0
LINE
  5
26A
  8
FLHDL
 10
-29.0
 20
676.0
 30
0.0
 11
1.0
 21
676.0
 31
0.0
  0
SOLID
  5
26B
  8
FLHDRTXT
 10
-73.666667
 20
684.65
 30
0.0
 11
-65.333333
 21
684.65
 31
0.0
 12
-69.5
 22
709.65
 32
0.0
 13
-69.5
 23
709.65
 33
0.0
  0
LINE
  5
26C
  8
FLHDL
 10
-33.0
 20
672.0
 30
0.0
 11
-29.0
 21
672.0
 31
0.0
  0
LINE
  5
26D
  8
FLHDL
 10
-33.0
 20
672.0
 30
0.0
 11
-37.0
 21
676.0
 31
0.0
  0
CIRCLE
  5
26E
  8
FLHDL
 10
-68.5
 20
716.0
 30
0.0
 40
6.35
  0
LINE
  5
26F
  8
FLHDL
 10
-29.0
 20
756.0
 30
0.0
 11
1.0
 21
756.0
 31
0.0
  0
LINE
  5
270
  8
FLHDL
 10
-33.0
 20
760.0
 30
0.0
 11
-29.0
 21
760.0
 31
0.0
  0
LINE
  5
271
  8
FLHDL
 10
-33.0
 20
760.0
 30
0.0
 11
-37.0
 21
756.0
 31
0.0
  0
LINE
  5
272
  8
CENTER
 10
221.0
 20
716.0
 30
0.0
 11
-342.884427
 21
716.0
 31
0.0
  0
CIRCLE
  5
27A
  8
DETAIL
 10
615.5
 20
861.0
 30
0.0
 40
144.0
  0
ENDSEC
  0
EOF
