  0
SECTION
  2
HEADER
  9
$ACADVER
  1
AC1009
  9
$INSBASE
 10
0.0
 20
0.0
 30
0.0
  9
$EXTMIN
 10
-100.088658
 20
-544.418457
 30
0.0
  9
$EXTMAX
 10
1353.088704
 20
1000.094279
 30
0.0
  9
$LIMMIN
 10
0.0
 20
0.0
  9
$LIMMAX
 10
420.0
 20
297.0
  9
$ORTHOMODE
 70
     1
  9
$REGENMODE
 70
     1
  9
$FILLMODE
 70
     1
  9
$QTEXTMODE
 70
     0
  9
$MIRRTEXT
 70
     0
  9
$DRAGMODE
 70
     2
  9
$LTSCALE
 40
25.0
  9
$OSMODE
 70
     0
  9
$ATTMODE
 70
     1
  9
$TEXTSIZE
 40
3.0
  9
$TRACEWID
 40
10.0
  9
$TEXTSTYLE
  7
STANDARD
  9
$CLAYER
  8
0
  9
$CELTYPE
  6
BYLAYER
  9
$CECOLOR
 62
   256
  9
$DIMSCALE
 40
1.0
  9
$DIMASZ
 40
25.0
  9
$DIMEXO
 40
15.0
  9
$DIMDLI
 40
10.0
  9
$DIMRND
 40
0.0
  9
$DIMDLE
 40
1.25
  9
$DIMEXE
 40
15.0
  9
$DIMTP
 40
0.0
  9
$DIMTM
 40
0.0
  9
$DIMTXT
 40
25.0
  9
$DIMCEN
 40
-3.0
  9
$DIMTSZ
 40
0.0
  9
$DIMTOL
 70
     0
  9
$DIMLIM
 70
     0
  9
$DIMTIH
 70
     0
  9
$DIMTOH
 70
     0
  9
$DIMSE1
 70
     0
  9
$DIMSE2
 70
     0
  9
$DIMTAD
 70
     0
  9
$DIMZIN
 70
     1
  9
$DIMBLK
  1

  9
$DIMASO
 70
     0
  9
$DIMSHO
 70
     0
  9
$DIMPOST
  1

  9
$DIMAPOST
  1

  9
$DIMALT
 70
     0
  9
$DIMALTD
 70
     2
  9
$DIMALTF
 40
0.039
  9
$DIMLFAC
 40
1.0
  9
$DIMTOFL
 70
     0
  9
$DIMTVP
 40
1.5
  9
$DIMTIX
 70
     0
  9
$DIMSOXD
 70
     0
  9
$DIMSAH
 70
     0
  9
$DIMBLK1
  1

  9
$DIMBLK2
  1

  9
$DIMSTYLE
  2
-
  9
$DIMCLRD
 70
     0
  9
$DIMCLRE
 70
     0
  9
$DIMCLRT
 70
     0
  9
$DIMTFAC
 40
1.0
  9
$DIMGAP
 40
0.09
  9
$LUNITS
 70
     2
  9
$LUPREC
 70
     2
  9
$SKETCHINC
 40
10.0
  9
$FILLETRAD
 40
0.0
  9
$AUNITS
 70
     0
  9
$AUPREC
 70
     4
  9
$MENU
  1
acad
  9
$ELEVATION
 40
0.0
  9
$PELEVATION
 40
0.0
  9
$THICKNESS
 40
0.0
  9
$LIMCHECK
 70
     0
  9
$BLIPMODE
 70
     0
  9
$CHAMFERA
 40
0.0
  9
$CHAMFERB
 40
0.0
  9
$SKPOLY
 70
     1
  9
$TDCREATE
 40
2450098.538812
  9
$TDUPDATE
 40
2453073.533357
  9
$TDINDWG
 40
0.066077
  9
$TDUSRTIMER
 40
0.066077
  9
$USRTIMER
 70
     1
  9
$ANGBASE
 50
0.0
  9
$ANGDIR
 70
     0
  9
$PDMODE
 70
     3
  9
$PDSIZE
 40
0.0
  9
$PLINEWID
 40
0.0
  9
$COORDS
 70
     1
  9
$SPLFRAME
 70
     0
  9
$SPLINETYPE
 70
     6
  9
$SPLINESEGS
 70
     6
  9
$ATTDIA
 70
     0
  9
$ATTREQ
 70
     1
  9
$HANDLING
 70
 22529
  9
$HANDSEED
  5
915
  9
$SURFTAB1
 70
    12
  9
$SURFTAB2
 70
    12
  9
$SURFTYPE
 70
     6
  9
$SURFU
 70
    12
  9
$SURFV
 70
    12
  9
$UCSNAME
  2

  9
$UCSORG
 10
0.0
 20
0.0
 30
0.0
  9
$UCSXDIR
 10
1.0
 20
0.0
 30
0.0
  9
$UCSYDIR
 10
0.0
 20
1.0
 30
0.0
  9
$PUCSNAME
  2

  9
$PUCSORG
 10
0.0
 20
0.0
 30
0.0
  9
$PUCSXDIR
 10
1.0
 20
0.0
 30
0.0
  9
$PUCSYDIR
 10
0.0
 20
1.0
 30
0.0
  9
$USERI1
 70
     0
  9
$USERI2
 70
     0
  9
$USERI3
 70
     0
  9
$USERI4
 70
     0
  9
$USERI5
 70
     0
  9
$USERR1
 40
0.0
  9
$USERR2
 40
0.0
  9
$USERR3
 40
0.0
  9
$USERR4
 40
0.0
  9
$USERR5
 40
0.0
  9
$WORLDVIEW
 70
     0
  9
$SHADEDGE
 70
     3
  9
$SHADEDIF
 70
    70
  9
$TILEMODE
 70
     1
  9
$MAXACTVP
 70
    16
  9
$PLIMCHECK
 70
     0
  9
$PEXTMIN
 10
1.000000E+020
 20
1.000000E+020
 30
1.000000E+020
  9
$PEXTMAX
 10
-1.000000E+020
 20
-1.000000E+020
 30
-1.000000E+020
  9
$PLIMMIN
 10
0.0
 20
0.0
  9
$PLIMMAX
 10
12.0
 20
9.0
  9
$UNITMODE
 70
     0
  9
$VISRETAIN
 70
     0
  9
$PLINEGEN
 70
     0
  9
$PSLTSCALE
 70
     0
  0
ENDSEC
  0
SECTION
  2
TABLES
  0
TABLE
  2
VPORT
 70
     2
  0
VPORT
  2
*ACTIVE
 70
     0
 10
0.0
 20
0.0
 11
1.0
 21
1.0
 12
626.500023
 22
227.837911
 13
0.0
 23
0.0
 14
1000.0
 24
1000.0
 15
0.0
 25
0.0
 16
0.0
 26
0.0
 36
1.0
 17
0.0
 27
0.0
 37
0.0
 40
1562.299831
 41
1.825
 42
50.0
 43
0.0
 44
0.0
 50
0.0
 51
0.0
 71
     0
 72
  2000
 73
     1
 74
     2
 75
     0
 76
     0
 77
     0
 78
     0
  0
ENDTAB
  0
TABLE
  2
LTYPE
 70
     3
  0
LTYPE
  2
CONTINUOUS
 70
     0
  3
Solid line
 72
    65
 73
     0
 40
0.0
  0
LTYPE
  2
CENTER
 70
     0
  3
____ _ ____ _ ____ _ ____ _ ____ _ ____ _ ____
 72
    65
 73
     4
 40
2.0
 49
1.25
 49
-0.25
 49
0.25
 49
-0.25
  0
LTYPE
  2
DASHED
 70
     0
  3
__ __ __ __ __ __ __ __ __ __ __ __ __ __ __
 72
    65
 73
     2
 40
0.75
 49
0.5
 49
-0.25
  0
ENDTAB
  0
TABLE
  2
LAYER
 70
    12
  0
LAYER
  2
0
 70
     0
 62
     7
  6
CONTINUOUS
  0
LAYER
  2
DETAIL
 70
     0
 62
     2
  6
CONTINUOUS
  0
LAYER
  2
DIMENSIONS
 70
     1
 62
     7
  6
CONTINUOUS
  0
LAYER
  2
CENTER
 70
     1
 62
     4
  6
CENTER
  0
LAYER
  2
ORIGIN
 70
     0
 62
     6
  6
CONTINUOUS
  0
LAYER
  2
PLANNING
 70
     1
 62
     1
  6
DASHED
  0
LAYER
  2
STELTXT
 70
     1
 62
     4
  6
CONTINUOUS
  0
LAYER
  2
FLHDL
 70
     1
 62
     3
  6
CONTINUOUS
  0
LAYER
  2
FLHDR
 70
     1
 62
     3
  6
CONTINUOUS
  0
LAYER
  2
DIMFLHDL
 70
     1
 62
     7
  6
CONTINUOUS
  0
LAYER
  2
DIMFLHDR
 70
     1
 62
     7
  6
CONTINUOUS
  0
LAYER
  2
STELATT
 70
     0
 62
     7
  6
CONTINUOUS
  0
ENDTAB
  0
TABLE
  2
STYLE
 70
     1
  0
STYLE
  2
STANDARD
 70
     0
 40
0.0
 41
1.0
 50
0.0
 71
     0
 42
3.0
  3
simplex
  4

  0
ENDTAB
  0
TABLE
  2
VIEW
 70
     0
  0
ENDTAB
  0
TABLE
  2
UCS
 70
     0
  0
ENDTAB
  0
TABLE
  2
APPID
 70
     1
  0
APPID
  2
ACAD
 70
     0
  0
ENDTAB
  0
TABLE
  2
DIMSTYLE
 70
     1
  0
DIMSTYLE
  2
-
 70
     0
  3

  4

  5

  6

  7

 40
1.0
 41
0.18
 42
0.0625
 43
0.38
 44
0.18
 45
0.0
 46
0.0
 47
0.0
 48
0.0
140
0.18
141
0.09
142
0.0
143
25.4
144
1.0
145
0.0
146
1.0
147
0.09
 71
     0
 72
     0
 73
     1
 74
     1
 75
     0
 76
     0
 77
     0
 78
     0
170
     0
171
     2
172
     0
173
     0
174
     0
175
     0
176
     0
177
     0
178
     0
  0
ENDTAB
  0
ENDSEC
  0
SECTION
  2
BLOCKS
  0
BLOCK
  8
0
  2
$MODEL_SPACE
 70
     0
 10
0.0
 20
0.0
 30
0.0
  3
$MODEL_SPACE
  1

  0
ENDBLK
  5
79E
  8
0
  0
BLOCK
 67
     1
  8
0
  2
$PAPER_SPACE
 70
     0
 10
0.0
 20
0.0
 30
0.0
  3
$PAPER_SPACE
  1

  0
ENDBLK
  5
79C
 67
     1
  8
0
  0
BLOCK
  8
0
  2
GRILLE
 70
     0
 10
0.0
 20
0.0
 30
0.0
  3
GRILLE
  1

  0
ARC
  5
31
  8
DETAIL
 10
74.5
 20
29.7
 30
0.0
 40
3.0
 50
180.0
 51
0.0
  0
ARC
  5
32
  8
DETAIL
 10
74.5
 20
73.7
 30
0.0
 40
3.0
 50
0.0
 51
180.0
  0
LINE
  5
33
  8
DETAIL
 10
77.5
 20
29.7
 30
0.0
 11
77.5
 21
73.7
 31
0.0
  0
LINE
  5
34
  8
DETAIL
 10
71.5
 20
29.7
 30
0.0
 11
71.5
 21
73.7
 31
0.0
  0
ENDBLK
  5
35
  8
0
  0
ENDSEC
  0
SECTION
  2
ENTITIES
  0
TEXT
  5
36
  8
DIMENSIONS
 10
637.214286
 20
-200.0
 30
0.0
 40
25.0
  1
1353
  0
SOLID
  5
37
  8
DIMENSIONS
 10
25.0
 20
-229.166667
 30
0.0
 11
25.0
 21
-220.833333
 31
0.0
 12
0.0
 22
-225.0
 32
0.0
 13
0.0
 23
-225.0
 33
0.0
  0
SOLID
  5
38
  8
DIMENSIONS
 10
1328.0
 20
-229.166667
 30
0.0
 11
1328.0
 21
-220.833333
 31
0.0
 12
1353.0
 22
-225.0
 32
0.0
 13
1353.0
 23
-225.0
 33
0.0
  0
LINE
  5
39
  8
DIMENSIONS
 10
1328.0
 20
-225.0
 30
0.0
 11
25.0
 21
-225.0
 31
0.0
  0
LINE
  5
3A
  8
DIMENSIONS
 10
0.0
 20
-240.0
 30
0.0
 11
0.0
 21
-240.0
 31
0.0
  0
LINE
  5
3B
  8
DIMENSIONS
 10
1353.0
 20
5.0
 30
0.0
 11
1353.0
 21
-240.0
 31
0.0
  0
LINE
  5
3C
  8
PLANNING
 10
1453.0
 20
0.0
 30
0.0
 11
-100.0
 21
0.0
 31
0.0
  0
LINE
  5
3D
  8
PLANNING
 10
1453.0
 20
1000.0
 30
0.0
 11
-100.0
 21
1000.0
 31
0.0
  0
LINE
  5
3E
  8
PLANNING
 10
-100.0
 20
1000.0
 30
0.0
 11
-100.0
 21
0.0
 31
0.0
  0
LINE
  5
3F
  8
PLANNING
 10
1453.0
 20
0.0
 30
0.0
 11
1453.0
 21
1000.0
 31
0.0
  0
TEXT
  5
40
  8
DIMENSIONS
 10
-495.0
 20
458.333333
 30
0.0
 40
25.0
  1
1000
 50
90.0
  0
SOLID
  5
41
  8
DIMENSIONS
 10
-465.833333
 20
25.0
 30
0.0
 11
-474.166667
 21
25.0
 31
0.0
 12
-470.0
 22
0.0
 32
0.0
 13
-470.0
 23
0.0
 33
0.0
  0
SOLID
  5
42
  8
DIMENSIONS
 10
-465.833333
 20
975.0
 30
0.0
 11
-474.166667
 21
975.0
 31
0.0
 12
-470.0
 22
1000.0
 32
0.0
 13
-470.0
 23
1000.0
 33
0.0
  0
LINE
  5
43
  8
DIMENSIONS
 10
-470.0
 20
975.0
 30
0.0
 11
-470.0
 21
25.0
 31
0.0
  0
LINE
  5
44
  8
DIMENSIONS
 10
-455.0
 20
0.0
 30
0.0
 11
-455.0
 21
0.0
 31
0.0
  0
LINE
  5
45
  8
DIMENSIONS
 10
-15.0
 20
1000.0
 30
0.0
 11
-485.0
 21
1000.0
 31
0.0
  0
POLYLINE
  5
46
  8
ORIGIN
 66
     1
 10
0.0
 20
0.0
 30
0.0
  0
VERTEX
  5
90C
  8
ORIGIN
 10
0.0
 20
0.0
 30
0.0
  0
VERTEX
  5
90D
  8
ORIGIN
 10
-100.0
 20
-100.0
 30
0.0
  0
VERTEX
  5
90E
  8
ORIGIN
 10
-100.0
 20
100.0
 30
0.0
  0
VERTEX
  5
90F
  8
ORIGIN
 10
100.0
 20
-100.0
 30
0.0
  0
VERTEX
  5
910
  8
ORIGIN
 10
100.0
 20
100.0
 30
0.0
  0
VERTEX
  5
911
  8
ORIGIN
 10
0.0
 20
0.0
 30
0.0
  0
SEQEND
  5
912
  8
ORIGIN
  0
LINE
  5
5D
  8
DIMENSIONS
 10
131.0
 20
0.0
 30
0.0
 11
-485.0
 21
0.0
 31
0.0
  0
TEXT
  5
5F
  8
DIMENSIONS
 10
647.833333
 20
-100.0
 30
0.0
 40
25.0
  1
1062
  0
SOLID
  5
60
  8
DIMENSIONS
 10
1183.0
 20
-129.166667
 30
0.0
 11
1183.0
 21
-120.833333
 31
0.0
 12
1208.0
 22
-125.0
 32
0.0
 13
1208.0
 23
-125.0
 33
0.0
  0
SOLID
  5
61
  8
DIMENSIONS
 10
171.0
 20
-129.166667
 30
0.0
 11
171.0
 21
-120.833333
 31
0.0
 12
146.0
 22
-125.0
 32
0.0
 13
146.0
 23
-125.0
 33
0.0
  0
LINE
  5
62
  8
DIMENSIONS
 10
171.0
 20
-125.0
 30
0.0
 11
1183.0
 21
-125.0
 31
0.0
  0
LINE
  5
63
  8
DIMENSIONS
 10
1208.0
 20
260.0
 30
0.0
 11
1208.0
 21
-140.0
 31
0.0
  0
LINE
  5
64
  8
DIMENSIONS
 10
146.0
 20
260.0
 30
0.0
 11
146.0
 21
-140.0
 31
0.0
  0
LINE
  5
6B
  8
DIMENSIONS
 10
0.0
 20
5.0
 30
0.0
 11
0.0
 21
-240.0
 31
0.0
  0
LINE
  5
6D
  8
CENTER
 10
146.0
 20
423.0
 30
0.0
 11
146.0
 21
273.0
 31
0.0
  0
LINE
  5
6E
  8
CENTER
 10
1208.0
 20
423.0
 30
0.0
 11
1208.0
 21
273.0
 31
0.0
  0
LINE
  5
6F
  8
CENTER
 10
1208.0
 20
780.0
 30
0.0
 11
1208.0
 21
630.0
 31
0.0
  0
LINE
  5
70
  8
CENTER
 10
146.0
 20
780.0
 30
0.0
 11
146.0
 21
630.0
 31
0.0
  0
TEXT
  5
72
  8
DIMENSIONS
 10
2111.851071
 20
321.357143
 30
0.0
 40
25.0
  1
705
 50
90.0
  0
SOLID
  5
73
  8
DIMENSIONS
 10
2141.017738
 20
680.0
 30
0.0
 11
2132.684405
 21
680.0
 31
0.0
 12
2136.851071
 22
705.0
 32
0.0
 13
2136.851071
 23
705.0
 33
0.0
  0
SOLID
  5
74
  8
DIMENSIONS
 10
2141.017738
 20
25.0
 30
0.0
 11
2132.684405
 21
25.0
 31
0.0
 12
2136.851071
 22
0.0
 32
0.0
 13
2136.851071
 23
0.0
 33
0.0
  0
LINE
  5
75
  8
DIMENSIONS
 10
2136.851071
 20
25.0
 30
0.0
 11
2136.851071
 21
682.0
 31
0.0
  0
LINE
  5
76
  8
DIMENSIONS
 10
1298.0
 20
705.0
 30
0.0
 11
1663.0
 21
705.0
 31
0.0
  0
LINE
  5
77
  8
DIMENSIONS
 10
2151.851071
 20
0.0
 30
0.0
 11
2151.851071
 21
0.0
 31
0.0
  0
TEXT
  5
78
  8
DIMENSIONS
 10
1884.975111
 20
142.857143
 30
0.0
 40
25.0
  1
348
 50
90.0
  0
SOLID
  5
79
  8
DIMENSIONS
 10
1914.141778
 20
323.0
 30
0.0
 11
1905.808444
 21
323.0
 31
0.0
 12
1909.975111
 22
348.0
 32
0.0
 13
1909.975111
 23
348.0
 33
0.0
  0
SOLID
  5
7A
  8
DIMENSIONS
 10
1914.141778
 20
25.0
 30
0.0
 11
1905.808444
 21
25.0
 31
0.0
 12
1909.975111
 22
0.0
 32
0.0
 13
1909.975111
 23
0.0
 33
0.0
  0
LINE
  5
7B
  8
DIMENSIONS
 10
1909.975111
 20
25.0
 30
0.0
 11
1909.975111
 21
325.0
 31
0.0
  0
LINE
  5
7D
  8
DIMENSIONS
 10
1223.0
 20
0.0
 30
0.0
 11
2151.851071
 21
0.0
 31
0.0
  0
LINE
  5
7E
  8
CENTER
 10
221.0
 20
348.0
 30
0.0
 11
71.0
 21
348.0
 31
0.0
  0
LINE
  5
7F
  8
CENTER
 10
221.0
 20
705.0
 30
0.0
 11
71.0
 21
705.0
 31
0.0
  0
LINE
  5
80
  8
CENTER
 10
1283.0
 20
348.0
 30
0.0
 11
1133.0
 21
348.0
 31
0.0
  0
LINE
  5
81
  8
CENTER
 10
1283.0
 20
705.0
 30
0.0
 11
1133.0
 21
705.0
 31
0.0
  0
TEXT
  5
82
  8
DIMENSIONS
 10
637.214286
 20
1463.235678
 30
0.0
 40
25.0
  1
1353
  0
SOLID
  5
83
  8
DIMENSIONS
 10
1328.0
 20
1434.069012
 30
0.0
 11
1328.0
 21
1442.402345
 31
0.0
 12
1353.0
 22
1438.235678
 32
0.0
 13
1353.0
 23
1438.235678
 33
0.0
  0
SOLID
  5
84
  8
DIMENSIONS
 10
25.0
 20
1434.069012
 30
0.0
 11
25.0
 21
1442.402345
 31
0.0
 12
0.0
 22
1438.235678
 32
0.0
 13
0.0
 23
1438.235678
 33
0.0
  0
LINE
  5
85
  8
DIMENSIONS
 10
25.0
 20
1438.235678
 30
0.0
 11
1328.0
 21
1438.235678
 31
0.0
  0
LINE
  5
86
  8
DIMENSIONS
 10
1353.0
 20
1423.235678
 30
0.0
 11
1353.0
 21
1423.235678
 31
0.0
  0
LINE
  5
87
  8
DIMENSIONS
 10
0.0
 20
1015.0
 30
0.0
 11
0.0
 21
1453.235678
 31
0.0
  0
TEXT
  5
88
  8
DIMENSIONS
 10
244.357143
 20
1150.0
 30
0.0
 40
25.0
  1
676.5
  0
SOLID
  5
89
  8
DIMENSIONS
 10
25.0
 20
1120.833333
 30
0.0
 11
25.0
 21
1129.166667
 31
0.0
 12
0.0
 22
1125.0
 32
0.0
 13
0.0
 23
1125.0
 33
0.0
  0
SOLID
  5
8A
  8
DIMENSIONS
 10
651.0
 20
1120.833333
 30
0.0
 11
651.0
 21
1129.166667
 31
0.0
 12
676.0
 22
1125.0
 32
0.0
 13
676.0
 23
1125.0
 33
0.0
  0
LINE
  5
8B
  8
DIMENSIONS
 10
651.0
 20
1125.0
 30
0.0
 11
25.0
 21
1125.0
 31
0.0
  0
LINE
  5
8C
  8
DIMENSIONS
 10
677.0
 20
1090.0
 30
0.0
 11
677.0
 21
1140.0
 31
0.0
  0
LINE
  5
8D
  8
DIMENSIONS
 10
1353.0
 20
1015.0
 30
0.0
 11
1353.0
 21
1453.235678
 31
0.0
  0
LINE
  5
8E
  8
CENTER
 10
677.0
 20
1075.0
 30
0.0
 11
677.0
 21
925.0
 31
0.0
  0
LINE
  5
93
  8
DETAIL
 10
0.0
 20
1000.0
 30
0.0
 11
0.0
 21
10.0
 31
0.0
  0
LINE
  5
94
  8
DETAIL
 10
1353.0
 20
1000.0
 30
0.0
 11
0.0
 21
1000.0
 31
0.0
  0
LINE
  5
95
  8
DETAIL
 10
1353.0
 20
10.0
 30
0.0
 11
1353.0
 21
1000.0
 31
0.0
  0
LINE
  5
96
  8
DETAIL
 10
146.0
 20
0.0
 30
0.0
 11
1208.0
 21
0.0
 31
0.0
  0
LINE
  5
BD
  8
DIMFLHDL
 10
0.0
 20
1015.0
 30
0.0
 11
0.0
 21
1140.0
 31
0.0
  0
LINE
  5
BE
  8
DIMFLHDL
 10
-245.0
 20
807.0
 30
0.0
 11
-245.0
 21
1140.0
 31
0.0
  0
LINE
  5
BF
  8
DIMFLHDL
 10
-25.0
 20
1125.0
 30
0.0
 11
-220.0
 21
1125.0
 31
0.0
  0
SOLID
  5
C0
  8
DIMFLHDL
 10
-25.0
 20
1120.833333
 30
0.0
 11
-25.0
 21
1129.166667
 31
0.0
 12
0.0
 22
1125.0
 32
0.0
 13
0.0
 23
1125.0
 33
0.0
  0
SOLID
  5
C1
  8
DIMFLHDL
 10
-220.0
 20
1120.833333
 30
0.0
 11
-220.0
 21
1129.166667
 31
0.0
 12
-245.0
 22
1125.0
 32
0.0
 13
-245.0
 23
1125.0
 33
0.0
  0
TEXT
  5
C2
  8
DIMFLHDL
 10
-154.642857
 20
1150.0
 30
0.0
 40
25.0
  1
245
  0
LINE
  5
C3
  8
DIMFLHDL
 10
-260.0
 20
790.0
 30
0.0
 11
-385.0
 21
790.0
 31
0.0
  0
LINE
  5
C4
  8
DIMFLHDL
 10
-260.0
 20
620.0
 30
0.0
 11
-385.0
 21
620.0
 31
0.0
  0
LINE
  5
C5
  8
DIMFLHDL
 10
-370.0
 20
765.0
 30
0.0
 11
-370.0
 21
645.0
 31
0.0
  0
SOLID
  5
C6
  8
DIMFLHDL
 10
-365.833333
 20
765.0
 30
0.0
 11
-374.166667
 21
765.0
 31
0.0
 12
-370.0
 22
790.0
 32
0.0
 13
-370.0
 23
790.0
 33
0.0
  0
SOLID
  5
C7
  8
DIMFLHDL
 10
-365.833333
 20
645.0
 30
0.0
 11
-374.166667
 21
645.0
 31
0.0
 12
-370.0
 22
620.0
 32
0.0
 13
-370.0
 23
620.0
 33
0.0
  0
TEXT
  5
C8
  8
DIMFLHDL
 10
-395.0
 20
675.238095
 30
0.0
 40
25.0
  1
170
 50
90.0
  0
TEXT
  5
C9
  8
DIMFLHDR
 10
1698.0
 20
677.238095
 30
0.0
 40
25.0
  1
170
 50
90.0
  0
SOLID
  5
CA
  8
DIMFLHDR
 10
1718.833333
 20
647.0
 30
0.0
 11
1727.166667
 21
647.0
 31
0.0
 12
1723.0
 22
622.0
 32
0.0
 13
1723.0
 23
622.0
 33
0.0
  0
SOLID
  5
CB
  8
DIMFLHDR
 10
1718.833333
 20
767.0
 30
0.0
 11
1727.166667
 21
767.0
 31
0.0
 12
1723.0
 22
792.0
 32
0.0
 13
1723.0
 23
792.0
 33
0.0
  0
LINE
  5
CC
  8
DIMFLHDR
 10
1723.0
 20
767.0
 30
0.0
 11
1723.0
 21
647.0
 31
0.0
  0
LINE
  5
CD
  8
DIMFLHDR
 10
1613.0
 20
622.0
 30
0.0
 11
1738.0
 21
622.0
 31
0.0
  0
LINE
  5
CE
  8
DIMFLHDR
 10
1613.0
 20
792.0
 30
0.0
 11
1738.0
 21
792.0
 31
0.0
  0
TEXT
  5
CF
  8
DIMFLHDR
 10
1443.357143
 20
1150.0
 30
0.0
 40
25.0
  1
245
  0
SOLID
  5
D0
  8
DIMFLHDR
 10
1573.0
 20
1120.833333
 30
0.0
 11
1573.0
 21
1129.166667
 31
0.0
 12
1598.0
 22
1125.0
 32
0.0
 13
1598.0
 23
1125.0
 33
0.0
  0
SOLID
  5
D1
  8
DIMFLHDR
 10
1378.0
 20
1120.833333
 30
0.0
 11
1378.0
 21
1129.166667
 31
0.0
 12
1353.0
 22
1125.0
 32
0.0
 13
1353.0
 23
1125.0
 33
0.0
  0
LINE
  5
D2
  8
DIMFLHDR
 10
1378.0
 20
1125.0
 30
0.0
 11
1573.0
 21
1125.0
 31
0.0
  0
LINE
  5
D3
  8
DIMFLHDR
 10
1598.0
 20
807.0
 30
0.0
 11
1598.0
 21
1140.0
 31
0.0
  0
INSERT
  5
D4
  8
DETAIL
  2
GRILLE
 10
607.5
 20
0.0
 30
0.0
  0
INSERT
  5
D5
  8
DETAIL
  2
GRILLE
 10
618.5
 20
0.0
 30
0.0
  0
INSERT
  5
D6
  8
DETAIL
  2
GRILLE
 10
629.5
 20
0.0
 30
0.0
  0
INSERT
  5
D7
  8
DETAIL
  2
GRILLE
 10
640.5
 20
0.0
 30
0.0
  0
INSERT
  5
D8
  8
DETAIL
  2
GRILLE
 10
651.5
 20
0.0
 30
0.0
  0
INSERT
  5
D9
  8
DETAIL
  2
GRILLE
 10
662.5
 20
0.0
 30
0.0
  0
INSERT
  5
DA
  8
DETAIL
  2
GRILLE
 10
673.5
 20
0.0
 30
0.0
  0
INSERT
  5
DB
  8
DETAIL
  2
GRILLE
 10
684.5
 20
0.0
 30
0.0
  0
LINE
  5
DC
  8
DETAIL
 10
146.0
 20
10.0
 30
0.0
 11
146.0
 21
0.0
 31
0.0
  0
LINE
  5
DD
  8
DETAIL
 10
1208.0
 20
10.0
 30
0.0
 11
1208.0
 21
0.0
 31
0.0
  0
LINE
  5
DE
  8
DETAIL
 10
0.0
 20
10.0
 30
0.0
 11
1353.0
 21
10.0
 31
0.0
  0
LINE
  5
DF
  8
DETAIL
  6
DASHED
 10
1208.0
 20
980.0
 30
0.0
 11
146.0
 21
980.0
 31
0.0
  0
LINE
  5
E0
  8
STELTXT
 10
-318.018697
 20
1238.374497
 30
0.0
 11
359.407833
 21
1238.374497
 31
0.0
  0
TEXT
  5
E1
  8
STELTXT
 10
-782.659632
 20
1226.545013
 30
0.0
 40
25.0
  1
FLUE OUTLET %%c288mm
  0
SOLID
  5
E2
  8
STELTXT
 10
662.798708
 20
1000.992485
 30
0.0
 11
656.757972
 21
995.251931
 31
0.0
 12
677.0
 22
980.0
 32
0.0
 13
677.0
 23
980.0
 33
0.0
  0
LINE
  5
E3
  8
STELTXT
 10
659.77834
 20
998.122208
 30
0.0
 11
359.407833
 21
1238.374497
 31
0.0
  0
LINE
  5
E4
  8
DIMENSIONS
 10
1708.0
 20
705.0
 30
0.0
 11
2151.851071
 21
705.0
 31
0.0
  0
LINE
  5
E5
  8
DIMFLHDR
 10
1353.0
 20
1015.0
 30
0.0
 11
1353.0
 21
1140.0
 31
0.0
  0
LINE
  5
EA
  8
DETAIL
 10
0.0
 20
107.408846
 30
0.0
 11
1353.0
 21
107.408846
 31
0.0
  0
INSERT
  5
121
  8
DETAIL
  2
GRILLE
 10
695.5
 20
0.0
 30
0.0
  0
INSERT
  5
122
  8
DETAIL
  2
GRILLE
 10
706.5
 20
0.0
 30
0.0
  0
INSERT
  5
123
  8
DETAIL
  2
GRILLE
 10
717.5
 20
0.0
 30
0.0
  0
INSERT
  5
124
  8
DETAIL
  2
GRILLE
 10
728.5
 20
0.0
 30
0.0
  0
INSERT
  5
125
  8
DETAIL
  2
GRILLE
 10
739.5
 20
0.0
 30
0.0
  0
INSERT
  5
126
  8
DETAIL
  2
GRILLE
 10
750.5
 20
0.0
 30
0.0
  0
INSERT
  5
127
  8
DETAIL
  2
GRILLE
 10
761.5
 20
0.0
 30
0.0
  0
INSERT
  5
128
  8
DETAIL
  2
GRILLE
 10
772.5
 20
0.0
 30
0.0
  0
INSERT
  5
129
  8
DETAIL
  2
GRILLE
 10
783.5
 20
0.0
 30
0.0
  0
INSERT
  5
12A
  8
DETAIL
  2
GRILLE
 10
794.5
 20
0.0
 30
0.0
  0
INSERT
  5
12B
  8
DETAIL
  2
GRILLE
 10
805.5
 20
0.0
 30
0.0
  0
INSERT
  5
12C
  8
DETAIL
  2
GRILLE
 10
816.5
 20
0.0
 30
0.0
  0
INSERT
  5
12D
  8
DETAIL
  2
GRILLE
 10
827.5
 20
0.0
 30
0.0
  0
INSERT
  5
12E
  8
DETAIL
  2
GRILLE
 10
838.5
 20
0.0
 30
0.0
  0
INSERT
  5
12F
  8
DETAIL
  2
GRILLE
 10
849.5
 20
0.0
 30
0.0
  0
INSERT
  5
130
  8
DETAIL
  2
GRILLE
 10
860.5
 20
0.0
 30
0.0
  0
INSERT
  5
131
  8
DETAIL
  2
GRILLE
 10
871.5
 20
0.0
 30
0.0
  0
INSERT
  5
132
  8
DETAIL
  2
GRILLE
 10
882.5
 20
0.0
 30
0.0
  0
INSERT
  5
133
  8
DETAIL
  2
GRILLE
 10
893.5
 20
0.0
 30
0.0
  0
INSERT
  5
134
  8
DETAIL
  2
GRILLE
 10
904.5
 20
0.0
 30
0.0
  0
INSERT
  5
135
  8
DETAIL
  2
GRILLE
 10
915.5
 20
0.0
 30
0.0
  0
INSERT
  5
136
  8
DETAIL
  2
GRILLE
 10
926.5
 20
0.0
 30
0.0
  0
INSERT
  5
137
  8
DETAIL
  2
GRILLE
 10
937.5
 20
0.0
 30
0.0
  0
INSERT
  5
138
  8
DETAIL
  2
GRILLE
 10
948.5
 20
0.0
 30
0.0
  0
INSERT
  5
139
  8
DETAIL
  2
GRILLE
 10
959.5
 20
0.0
 30
0.0
  0
INSERT
  5
13A
  8
DETAIL
  2
GRILLE
 10
970.5
 20
0.0
 30
0.0
  0
INSERT
  5
13B
  8
DETAIL
  2
GRILLE
 10
981.5
 20
0.0
 30
0.0
  0
INSERT
  5
13C
  8
DETAIL
  2
GRILLE
 10
992.5
 20
0.0
 30
0.0
  0
INSERT
  5
13D
  8
DETAIL
  2
GRILLE
 10
1003.5
 20
0.0
 30
0.0
  0
INSERT
  5
13E
  8
DETAIL
  2
GRILLE
 10
1014.5
 20
0.0
 30
0.0
  0
INSERT
  5
13F
  8
DETAIL
  2
GRILLE
 10
1025.5
 20
0.0
 30
0.0
  0
INSERT
  5
140
  8
DETAIL
  2
GRILLE
 10
1036.5
 20
0.0
 30
0.0
  0
INSERT
  5
141
  8
DETAIL
  2
GRILLE
 10
1047.5
 20
0.0
 30
0.0
  0
INSERT
  5
142
  8
DETAIL
  2
GRILLE
 10
1058.5
 20
0.0
 30
0.0
  0
INSERT
  5
143
  8
DETAIL
  2
GRILLE
 10
1069.5
 20
0.0
 30
0.0
  0
INSERT
  5
144
  8
DETAIL
  2
GRILLE
 10
1080.5
 20
0.0
 30
0.0
  0
INSERT
  5
145
  8
DETAIL
  2
GRILLE
 10
1091.5
 20
0.0
 30
0.0
  0
INSERT
  5
146
  8
DETAIL
  2
GRILLE
 10
1102.5
 20
0.0
 30
0.0
  0
INSERT
  5
147
  8
DETAIL
  2
GRILLE
 10
1113.5
 20
0.0
 30
0.0
  0
INSERT
  5
148
  8
DETAIL
  2
GRILLE
 10
1124.5
 20
0.0
 30
0.0
  0
INSERT
  5
149
  8
DETAIL
  2
GRILLE
 10
734.5
 20
0.0
 30
0.0
 41
-1.0
  0
INSERT
  5
14A
  8
DETAIL
  2
GRILLE
 10
745.5
 20
0.0
 30
0.0
 41
-1.0
  0
INSERT
  5
14B
  8
DETAIL
  2
GRILLE
 10
228.5
 20
0.0
 30
0.0
 41
-1.0
  0
INSERT
  5
14C
  8
DETAIL
  2
GRILLE
 10
239.5
 20
0.0
 30
0.0
 41
-1.0
  0
INSERT
  5
14D
  8
DETAIL
  2
GRILLE
 10
250.5
 20
0.0
 30
0.0
 41
-1.0
  0
INSERT
  5
14E
  8
DETAIL
  2
GRILLE
 10
261.5
 20
0.0
 30
0.0
 41
-1.0
  0
INSERT
  5
14F
  8
DETAIL
  2
GRILLE
 10
272.5
 20
0.0
 30
0.0
 41
-1.0
  0
INSERT
  5
150
  8
DETAIL
  2
GRILLE
 10
283.5
 20
0.0
 30
0.0
 41
-1.0
  0
INSERT
  5
151
  8
DETAIL
  2
GRILLE
 10
294.5
 20
0.0
 30
0.0
 41
-1.0
  0
INSERT
  5
152
  8
DETAIL
  2
GRILLE
 10
305.5
 20
0.0
 30
0.0
 41
-1.0
  0
INSERT
  5
153
  8
DETAIL
  2
GRILLE
 10
316.5
 20
0.0
 30
0.0
 41
-1.0
  0
INSERT
  5
154
  8
DETAIL
  2
GRILLE
 10
327.5
 20
0.0
 30
0.0
 41
-1.0
  0
INSERT
  5
155
  8
DETAIL
  2
GRILLE
 10
338.5
 20
0.0
 30
0.0
 41
-1.0
  0
INSERT
  5
156
  8
DETAIL
  2
GRILLE
 10
349.5
 20
0.0
 30
0.0
 41
-1.0
  0
INSERT
  5
157
  8
DETAIL
  2
GRILLE
 10
360.5
 20
0.0
 30
0.0
 41
-1.0
  0
INSERT
  5
158
  8
DETAIL
  2
GRILLE
 10
371.5
 20
0.0
 30
0.0
 41
-1.0
  0
INSERT
  5
159
  8
DETAIL
  2
GRILLE
 10
382.5
 20
0.0
 30
0.0
 41
-1.0
  0
INSERT
  5
15A
  8
DETAIL
  2
GRILLE
 10
393.5
 20
0.0
 30
0.0
 41
-1.0
  0
INSERT
  5
15B
  8
DETAIL
  2
GRILLE
 10
404.5
 20
0.0
 30
0.0
 41
-1.0
  0
INSERT
  5
15C
  8
DETAIL
  2
GRILLE
 10
415.5
 20
0.0
 30
0.0
 41
-1.0
  0
INSERT
  5
15D
  8
DETAIL
  2
GRILLE
 10
426.5
 20
0.0
 30
0.0
 41
-1.0
  0
INSERT
  5
15E
  8
DETAIL
  2
GRILLE
 10
437.5
 20
0.0
 30
0.0
 41
-1.0
  0
INSERT
  5
15F
  8
DETAIL
  2
GRILLE
 10
448.5
 20
0.0
 30
0.0
 41
-1.0
  0
INSERT
  5
160
  8
DETAIL
  2
GRILLE
 10
459.5
 20
0.0
 30
0.0
 41
-1.0
  0
INSERT
  5
161
  8
DETAIL
  2
GRILLE
 10
470.5
 20
0.0
 30
0.0
 41
-1.0
  0
INSERT
  5
162
  8
DETAIL
  2
GRILLE
 10
481.5
 20
0.0
 30
0.0
 41
-1.0
  0
INSERT
  5
163
  8
DETAIL
  2
GRILLE
 10
492.5
 20
0.0
 30
0.0
 41
-1.0
  0
INSERT
  5
164
  8
DETAIL
  2
GRILLE
 10
503.5
 20
0.0
 30
0.0
 41
-1.0
  0
INSERT
  5
165
  8
DETAIL
  2
GRILLE
 10
514.5
 20
0.0
 30
0.0
 41
-1.0
  0
INSERT
  5
166
  8
DETAIL
  2
GRILLE
 10
525.5
 20
0.0
 30
0.0
 41
-1.0
  0
INSERT
  5
167
  8
DETAIL
  2
GRILLE
 10
536.5
 20
0.0
 30
0.0
 41
-1.0
  0
INSERT
  5
168
  8
DETAIL
  2
GRILLE
 10
547.5
 20
0.0
 30
0.0
 41
-1.0
  0
INSERT
  5
169
  8
DETAIL
  2
GRILLE
 10
558.5
 20
0.0
 30
0.0
 41
-1.0
  0
INSERT
  5
16A
  8
DETAIL
  2
GRILLE
 10
569.5
 20
0.0
 30
0.0
 41
-1.0
  0
INSERT
  5
16B
  8
DETAIL
  2
GRILLE
 10
580.5
 20
0.0
 30
0.0
 41
-1.0
  0
INSERT
  5
16C
  8
DETAIL
  2
GRILLE
 10
591.5
 20
0.0
 30
0.0
 41
-1.0
  0
INSERT
  5
16D
  8
DETAIL
  2
GRILLE
 10
602.5
 20
0.0
 30
0.0
 41
-1.0
  0
INSERT
  5
16E
  8
DETAIL
  2
GRILLE
 10
613.5
 20
0.0
 30
0.0
 41
-1.0
  0
INSERT
  5
16F
  8
DETAIL
  2
GRILLE
 10
624.5
 20
0.0
 30
0.0
 41
-1.0
  0
INSERT
  5
170
  8
DETAIL
  2
GRILLE
 10
635.5
 20
0.0
 30
0.0
 41
-1.0
  0
INSERT
  5
171
  8
DETAIL
  2
GRILLE
 10
646.5
 20
0.0
 30
0.0
 41
-1.0
  0
INSERT
  5
172
  8
DETAIL
  2
GRILLE
 10
657.5
 20
0.0
 30
0.0
 41
-1.0
  0
INSERT
  5
173
  8
DETAIL
  2
GRILLE
 10
701.5
 20
0.0
 30
0.0
 41
-1.0
  0
INSERT
  5
174
  8
DETAIL
  2
GRILLE
 10
712.5
 20
0.0
 30
0.0
 41
-1.0
  0
INSERT
  5
175
  8
DETAIL
  2
GRILLE
 10
723.5
 20
0.0
 30
0.0
 41
-1.0
  0
INSERT
  5
176
  8
DETAIL
  2
GRILLE
 10
679.5
 20
0.0
 30
0.0
 41
-1.0
  0
INSERT
  5
177
  8
DETAIL
  2
GRILLE
 10
690.5
 20
0.0
 30
0.0
 41
-1.0
  0
INSERT
  5
178
  8
DETAIL
  2
GRILLE
 10
668.5
 20
0.0
 30
0.0
 41
-1.0
  0
TEXT
  5
179
  8
DIMENSIONS
 10
647.833333
 20
1304.39413
 30
0.0
 40
25.0
  1
1062
  0
LINE
  5
17A
  8
DIMENSIONS
 10
171.0
 20
1283.621826
 30
0.0
 11
1183.0
 21
1283.621826
 31
0.0
  0
LINE
  5
17B
  8
DIMENSIONS
 10
146.0
 20
1029.550579
 30
0.0
 11
146.0
 21
1298.621826
 31
0.0
  0
SOLID
  5
17C
  8
DIMENSIONS
 10
171.0
 20
1287.788493
 30
0.0
 11
171.0
 21
1279.45516
 31
0.0
 12
146.0
 22
1283.621826
 32
0.0
 13
146.0
 23
1283.621826
 33
0.0
  0
LINE
  5
17D
  8
DIMENSIONS
 10
1208.0
 20
1029.550579
 30
0.0
 11
1208.0
 21
1298.621826
 31
0.0
  0
SOLID
  5
17E
  8
DIMENSIONS
 10
1183.0
 20
1287.788493
 30
0.0
 11
1183.0
 21
1279.45516
 31
0.0
 12
1208.0
 22
1283.621826
 32
0.0
 13
1208.0
 23
1283.621826
 33
0.0
  0
LINE
  5
17F
  8
DETAIL
 10
146.0
 20
967.017803
 30
0.0
 11
146.0
 21
980.0
 31
0.0
  0
LINE
  5
180
  8
DETAIL
 10
1208.0
 20
967.017803
 30
0.0
 11
1208.0
 21
980.0
 31
0.0
  0
LINE
  5
2BA
  8
STELTXT
 10
1429.921176
 20
243.921176
 30
0.0
 11
2202.335249
 21
243.921176
 31
0.0
  0
TEXT
  5
35E
  8
DIMENSIONS
 10
1628.0
 20
27.261905
 30
0.0
 40
25.0
  1
95
 50
90.0
  0
SOLID
  5
35F
  8
DIMENSIONS
 10
1573.833333
 20
70.0
 30
0.0
 11
1582.166667
 21
70.0
 31
0.0
 12
1578.0
 22
95.0
 32
0.0
 13
1578.0
 23
95.0
 33
0.0
  0
LINE
  5
367
  8
DIMENSIONS
 10
1578.0
 20
70.0
 30
0.0
 11
1578.0
 21
25.0
 31
0.0
  0
SOLID
  5
368
  8
DIMENSIONS
 10
1573.833333
 20
25.0
 30
0.0
 11
1582.166667
 21
25.0
 31
0.0
 12
1578.0
 22
0.0
 32
0.0
 13
1578.0
 23
0.0
 33
0.0
  0
LINE
  5
369
  8
DIMENSIONS
 10
1372.105177
 20
95.0
 30
0.0
 11
1593.0
 21
95.0
 31
0.0
  0
LINE
  5
39E
  8
DIMENSIONS
 10
1298.0
 20
348.0
 30
0.0
 11
1922.693929
 21
348.0
 31
0.0
  0
TEXT
  5
3D2
  8
STELTXT
 10
2209.776706
 20
232.66365
 30
0.0
 40
25.0
  1
GAS INLET 1 " BSP
  0
TEXT
  5
3D5
  8
STELTXT
 10
2454.961673
 20
235.144652
 30
0.0
 40
15.0
  1
/
  0
TEXT
  5
3D6
  8
STELTXT
 10
2464.454488
 20
232.432606
 30
0.0
 40
15.0
  1
2
  0
TEXT
  5
3D7
  8
STELTXT
 10
2448.18109
 20
241.246756
 30
0.0
 40
15.0
  1
1
  0
LINE
  5
4A1
  8
DETAIL
 10
1316.40951
 20
889.279109
 30
0.0
 11
1095.29701
 21
889.279109
 31
0.0
  0
LINE
  5
4A2
  8
DETAIL
 10
1095.29701
 20
988.554109
 30
0.0
 11
1316.40951
 21
988.554109
 31
0.0
  0
LINE
  5
4A7
  8
DETAIL
 10
1095.29701
 20
988.554109
 30
0.0
 11
1095.29701
 21
889.279109
 31
0.0
  0
LINE
  5
4BB
  8
DETAIL
 10
1316.40951
 20
988.554109
 30
0.0
 11
1316.40951
 21
889.279109
 31
0.0
  0
LINE
  5
4C7
  8
DETAIL
 10
676.5
 20
1000.0
 30
0.0
 11
676.5
 21
762.0
 31
0.0
  0
LINE
  5
717
  8
DETAIL
 10
1353.0
 20
762.0
 30
0.0
 11
0.0
 21
762.0
 31
0.0
  0
LINE
  5
718
  8
DETAIL
 10
1353.0
 20
727.0
 30
0.0
 11
0.0
 21
727.0
 31
0.0
  0
TEXT
  5
71F
  8
DIMENSIONS
  6
CONTINUOUS
 10
633.547619
 20
1064.373925
 30
0.0
 40
25.0
  1
%%c288
  0
LINE
  5
720
  8
DIMENSIONS
  6
CONTINUOUS
 10
558.0
 20
1039.373925
 30
0.0
 11
796.0
 21
1039.373925
 31
0.0
  0
LINE
  5
721
  8
DIMENSIONS
  6
CONTINUOUS
 10
533.0
 20
1015.0
 30
0.0
 11
533.0
 21
1054.373925
 31
0.0
  0
SOLID
  5
722
  8
DIMENSIONS
  6
CONTINUOUS
 10
558.0
 20
1043.540592
 30
0.0
 11
558.0
 21
1035.207258
 31
0.0
 12
533.0
 22
1039.373925
 32
0.0
 13
533.0
 23
1039.373925
 33
0.0
  0
LINE
  5
723
  8
DIMENSIONS
  6
CONTINUOUS
 10
821.0
 20
1015.0
 30
0.0
 11
821.0
 21
1054.373925
 31
0.0
  0
SOLID
  5
724
  8
DIMENSIONS
  6
CONTINUOUS
 10
796.0
 20
1043.540592
 30
0.0
 11
796.0
 21
1035.207258
 31
0.0
 12
821.0
 22
1039.373925
 32
0.0
 13
821.0
 23
1039.373925
 33
0.0
  0
LINE
  5
725
  8
DETAIL
  6
DASHED
 10
821.0
 20
1000.0
 30
0.0
 11
821.0
 21
980.0
 31
0.0
  0
LINE
  5
726
  8
DETAIL
  6
DASHED
 10
533.0
 20
1000.0
 30
0.0
 11
533.0
 21
980.0
 31
0.0
  0
TEXT
  5
727
  8
STELTXT
 10
1762.08489
 20
1099.851092
 30
0.0
 40
25.0
  1
1 x 2" SIDE FACING FLOW FLANGE
  0
LINE
  5
728
  8
STELTXT
 10
1611.985553
 20
730.619618
 30
0.0
 11
1679.445592
 21
1112.774714
 31
0.0
  0
LINE
  5
72A
  8
STELTXT
 10
1741.843677
 20
1112.774714
 30
0.0
 11
1679.445592
 21
1112.774714
 31
0.0
  0
SOLID
  5
72B
  8
STELTXT
 10
1616.088779
 20
729.895295
 30
0.0
 11
1607.882326
 21
731.343941
 31
0.0
 12
1607.639613
 22
706.00026
 32
0.0
 13
1607.639613
 23
706.00026
 33
0.0
  0
TEXT
  5
72C
  8
STELTXT
 10
1600.437213
 20
418.130062
 30
0.0
 40
25.0
  1
1 x 2" SIDE FACING RETURN TAPPING
  0
LINE
  5
72D
  8
STELTXT
 10
1241.678526
 20
356.902032
 30
0.0
 11
1511.076383
 21
429.680808
 31
0.0
  0
LINE
  5
72E
  8
STELTXT
 10
1578.729298
 20
429.680808
 30
0.0
 11
1511.076383
 21
429.680808
 31
0.0
  0
SOLID
  5
72F
  8
STELTXT
 10
1242.765209
 20
352.879566
 30
0.0
 11
1240.591843
 21
360.924498
 31
0.0
 12
1217.543732
 22
350.381933
 32
0.0
 13
1217.543732
 23
350.381933
 33
0.0
  0
TEXT
  5
730
  8
STELTXT
 10
-1064.814701
 20
1099.851092
 30
0.0
 40
25.0
  1
1 x 2" SIDE FACING FLOW FLANGE
  0
LINE
  5
731
  8
STELTXT
 10
-252.810602
 20
730.619618
 30
0.0
 11
-320.270641
 21
1112.774714
 31
0.0
  0
LINE
  5
732
  8
STELTXT
 10
-372.95954
 20
1112.774714
 30
0.0
 11
-320.270641
 21
1112.774714
 31
0.0
  0
LINE
  5
733
  8
STELTXT
 10
-382.668726
 20
1112.774714
 30
0.0
 11
-329.979828
 21
1112.774714
 31
0.0
  0
SOLID
  5
734
  8
STELTXT
 10
-256.913828
 20
729.895295
 30
0.0
 11
-248.707375
 21
731.343941
 31
0.0
 12
-248.464662
 22
706.00026
 32
0.0
 13
-248.464662
 23
706.00026
 33
0.0
  0
LINE
  5
735
  8
STELTXT
 10
117.496425
 20
356.902032
 30
0.0
 11
-151.901432
 21
429.680808
 31
0.0
  0
SOLID
  5
736
  8
STELTXT
 10
116.409741
 20
352.879566
 30
0.0
 11
118.583108
 21
360.924498
 31
0.0
 12
141.631219
 22
350.381933
 32
0.0
 13
141.631219
 23
350.381933
 33
0.0
  0
TEXT
  5
737
  8
STELTXT
 10
-969.833691
 20
418.130062
 30
0.0
 40
25.0
  1
1 x 2" SIDE FACING RETURN TAPPING
  0
LINE
  5
738
  8
STELTXT
 10
-219.554347
 20
429.680808
 30
0.0
 11
-151.901432
 21
429.680808
 31
0.0
  0
ATTDEF
  5
76C
  8
STELATT
 10
633.752546
 20
-544.324227
 30
0.0
 40
40.0
  1
CXSi 160
 72
     4
 11
727.08588
 21
-524.324227
 31
0.0
  3

  2
MODEL
 70
     2
  0
ATTDEF
  5
76D
  8
STELATT
 10
644.620091
 20
-474.324227
 30
0.0
 40
40.0
  1
CONCORD 
 72
     4
 11
713.191519
 21
-454.324227
 31
0.0
  3

  2
TYPE
 70
     2
  0
ATTDEF
  5
76E
  8
STELATT
 10
472.911006
 20
-404.324227
 30
0.0
 40
40.0
  1
IDEAL
 72
     4
 11
706.244339
 21
-384.324227
 31
0.0
  3

  2
MANUFACTURER
 70
     2
  0
CIRCLE
  5
7A8
  8
DETAIL
 10
1176.188804
 20
938.916609
 30
0.0
 40
3.5
  0
CIRCLE
  5
7A9
  8
DETAIL
 10
1182.505343
 20
914.102378
 30
0.0
 40
3.5
  0
CIRCLE
  5
7AA
  8
DETAIL
 10
1182.505343
 20
963.73084
 30
0.0
 40
3.5
  0
LINE
  5
7AB
  8
DETAIL
 10
1270.90951
 20
952.916609
 30
0.0
 11
1270.90951
 21
947.735468
 31
0.0
  0
CIRCLE
  5
7AC
  8
DETAIL
 10
1270.90951
 20
938.916609
 30
0.0
 40
14.0
  0
CIRCLE
  5
7AD
  8
DETAIL
 10
1219.010459
 20
938.916609
 30
0.0
 40
3.5
  0
LINE
  5
7B0
  8
FLHDL
 10
-227.0
 20
790.0
 30
0.0
 11
-227.0
 21
620.0
 31
0.0
  0
LINE
  5
7B1
  8
FLHDL
 10
-30.0
 20
749.0
 30
0.0
 11
-30.0
 21
661.0
 31
0.0
  0
LINE
  5
7B2
  8
FLHDL
 10
-245.0
 20
790.0
 30
0.0
 11
-245.0
 21
620.0
 31
0.0
  0
LINE
  5
7B3
  8
FLHDL
 10
-227.0
 20
665.0
 30
0.0
 11
-38.0
 21
665.0
 31
0.0
  0
LINE
  5
7B4
  8
FLHDL
 10
-245.0
 20
620.0
 30
0.0
 11
-227.0
 21
620.0
 31
0.0
  0
LINE
  5
7B5
  8
FLHDL
 10
-30.0
 20
665.0
 30
0.0
 11
0.0
 21
665.0
 31
0.0
  0
LINE
  5
7B6
  8
FLHDL
 10
-34.0
 20
661.0
 30
0.0
 11
-30.0
 21
661.0
 31
0.0
  0
LINE
  5
7B7
  8
FLHDL
 10
-34.0
 20
661.0
 30
0.0
 11
-38.0
 21
665.0
 31
0.0
  0
LINE
  5
7B8
  8
FLHDL
 10
-69.367947
 20
745.0
 30
0.0
 11
-38.0
 21
745.0
 31
0.0
  0
LINE
  5
7B9
  8
FLHDL
 10
-164.312719
 20
745.0
 30
0.0
 11
-147.159667
 21
745.0
 31
0.0
  0
LINE
  5
7BA
  8
FLHDL
 10
-227.0
 20
745.0
 30
0.0
 11
-194.632053
 21
745.0
 31
0.0
  0
LINE
  5
7BB
  8
FLHDL
 10
-245.0
 20
790.0
 30
0.0
 11
-227.0
 21
790.0
 31
0.0
  0
LINE
  5
7BC
  8
FLHDL
 10
-194.632053
 20
753.0
 30
0.0
 11
-164.312719
 21
753.0
 31
0.0
  0
LINE
  5
7BD
  8
FLHDL
 10
-194.632053
 20
753.0
 30
0.0
 11
-194.632053
 21
745.0
 31
0.0
  0
LINE
  5
7BE
  8
FLHDL
 10
-164.312719
 20
753.0
 30
0.0
 11
-164.312719
 21
745.0
 31
0.0
  0
LINE
  5
7BF
  8
FLHDL
 10
-116.840333
 20
745.0
 30
0.0
 11
-99.687281
 21
745.0
 31
0.0
  0
LINE
  5
7C0
  8
FLHDL
 10
-147.159667
 20
753.0
 30
0.0
 11
-116.840333
 21
753.0
 31
0.0
  0
LINE
  5
7C1
  8
FLHDL
 10
-147.159667
 20
753.0
 30
0.0
 11
-147.159667
 21
745.0
 31
0.0
  0
LINE
  5
7C2
  8
FLHDL
 10
-116.840333
 20
753.0
 30
0.0
 11
-116.840333
 21
745.0
 31
0.0
  0
LINE
  5
7C3
  8
FLHDL
 10
-69.367947
 20
753.0
 30
0.0
 11
-99.687281
 21
753.0
 31
0.0
  0
LINE
  5
7C4
  8
FLHDL
 10
-99.687281
 20
753.0
 30
0.0
 11
-99.687281
 21
745.0
 31
0.0
  0
LINE
  5
7C5
  8
FLHDL
 10
-69.367947
 20
753.0
 30
0.0
 11
-69.367947
 21
745.0
 31
0.0
  0
LINE
  5
7C6
  8
FLHDL
 10
-30.0
 20
745.0
 30
0.0
 11
0.0
 21
745.0
 31
0.0
  0
LINE
  5
7C7
  8
FLHDL
 10
-34.0
 20
749.0
 30
0.0
 11
-30.0
 21
749.0
 31
0.0
  0
LINE
  5
7C8
  8
FLHDL
 10
-34.0
 20
749.0
 30
0.0
 11
-38.0
 21
745.0
 31
0.0
  0
LINE
  5
7C9
  8
FLHDR
 10
1517.312719
 20
745.0
 30
0.0
 11
1500.159667
 21
745.0
 31
0.0
  0
LINE
  5
7CA
  8
FLHDR
 10
1580.0
 20
665.0
 30
0.0
 11
1391.0
 21
665.0
 31
0.0
  0
LINE
  5
7CB
  8
FLHDR
 10
1383.0
 20
749.0
 30
0.0
 11
1383.0
 21
661.0
 31
0.0
  0
LINE
  5
7CC
  8
FLHDR
 10
1383.0
 20
665.0
 30
0.0
 11
1353.0
 21
665.0
 31
0.0
  0
LINE
  5
7CD
  8
FLHDR
 10
1387.0
 20
661.0
 30
0.0
 11
1383.0
 21
661.0
 31
0.0
  0
LINE
  5
7CE
  8
FLHDR
 10
1387.0
 20
661.0
 30
0.0
 11
1391.0
 21
665.0
 31
0.0
  0
LINE
  5
7CF
  8
FLHDR
 10
1422.367947
 20
745.0
 30
0.0
 11
1391.0
 21
745.0
 31
0.0
  0
LINE
  5
7D0
  8
FLHDR
 10
1383.0
 20
745.0
 30
0.0
 11
1353.0
 21
745.0
 31
0.0
  0
LINE
  5
7D1
  8
FLHDR
 10
1387.0
 20
749.0
 30
0.0
 11
1383.0
 21
749.0
 31
0.0
  0
LINE
  5
7D2
  8
FLHDR
 10
1387.0
 20
749.0
 30
0.0
 11
1391.0
 21
745.0
 31
0.0
  0
LINE
  5
7D3
  8
FLHDR
 10
1469.840333
 20
745.0
 30
0.0
 11
1452.687281
 21
745.0
 31
0.0
  0
LINE
  5
7D4
  8
FLHDR
 10
1422.367947
 20
753.0
 30
0.0
 11
1452.687281
 21
753.0
 31
0.0
  0
LINE
  5
7D5
  8
FLHDR
 10
1422.367947
 20
753.0
 30
0.0
 11
1422.367947
 21
745.0
 31
0.0
  0
LINE
  5
7D6
  8
FLHDR
 10
1452.687281
 20
753.0
 30
0.0
 11
1452.687281
 21
745.0
 31
0.0
  0
LINE
  5
7D7
  8
FLHDR
 10
1500.159667
 20
753.0
 30
0.0
 11
1469.840333
 21
753.0
 31
0.0
  0
LINE
  5
7D8
  8
FLHDR
 10
1469.840333
 20
753.0
 30
0.0
 11
1469.840333
 21
745.0
 31
0.0
  0
LINE
  5
7D9
  8
FLHDR
 10
1500.159667
 20
753.0
 30
0.0
 11
1500.159667
 21
745.0
 31
0.0
  0
LINE
  5
7DA
  8
FLHDR
 10
1580.0
 20
790.0
 30
0.0
 11
1580.0
 21
620.0
 31
0.0
  0
LINE
  5
7DB
  8
FLHDR
 10
1598.0
 20
790.0
 30
0.0
 11
1598.0
 21
620.0
 31
0.0
  0
LINE
  5
7DC
  8
FLHDR
 10
1598.0
 20
620.0
 30
0.0
 11
1580.0
 21
620.0
 31
0.0
  0
LINE
  5
7DD
  8
FLHDR
 10
1580.0
 20
745.0
 30
0.0
 11
1547.632053
 21
745.0
 31
0.0
  0
LINE
  5
7DE
  8
FLHDR
 10
1547.632053
 20
753.0
 30
0.0
 11
1517.312719
 21
753.0
 31
0.0
  0
LINE
  5
7DF
  8
FLHDR
 10
1517.312719
 20
753.0
 30
0.0
 11
1517.312719
 21
745.0
 31
0.0
  0
LINE
  5
7E0
  8
FLHDR
 10
1547.632053
 20
753.0
 30
0.0
 11
1547.632053
 21
745.0
 31
0.0
  0
LINE
  5
7E1
  8
FLHDR
 10
1598.0
 20
790.0
 30
0.0
 11
1580.0
 21
790.0
 31
0.0
  0
LINE
  5
7EA
  8
CENTER
 10
1281.0
 20
170.0
 30
0.0
 11
1281.0
 21
20.0
 31
0.0
  0
LINE
  5
7EB
  8
CENTER
 10
1356.0
 20
95.0
 30
0.0
 11
1206.0
 21
95.0
 31
0.0
  0
LINE
  5
7EC
  8
STELTXT
 10
1298.67767
 20
112.67767
 30
0.0
 11
1429.921176
 21
243.921176
 31
0.0
  0
SOLID
  5
7ED
  8
STELTXT
 10
1295.731391
 20
115.623948
 30
0.0
 11
1301.623948
 21
109.731391
 31
0.0
 12
1281.0
 22
95.0
 32
0.0
 13
1281.0
 23
95.0
 33
0.0
  0
TEXT
  5
7EE
  8
DIMENSIONS
 10
1299.658959
 20
-110.327862
 30
0.0
 40
25.0
  1
72
  0
LINE
  5
7EF
  8
DIMENSIONS
 10
1296.482978
 20
-125.0
 30
0.0
 11
1346.479169
 21
-125.0
 31
0.0
  0
LINE
  5
7F0
  8
DIMENSIONS
 10
1281.0
 20
5.0
 30
0.0
 11
1281.0
 21
-140.0
 31
0.0
  0
SOLID
  5
7F1
  8
DIMENSIONS
 10
1306.0
 20
-129.166667
 30
0.0
 11
1306.0
 21
-120.833333
 31
0.0
 12
1281.0
 22
-125.0
 32
0.0
 13
1281.0
 23
-125.0
 33
0.0
  0
SOLID
  5
7F2
  8
DIMENSIONS
 10
1328.0
 20
-129.166667
 30
0.0
 11
1328.0
 21
-120.833333
 31
0.0
 12
1353.0
 22
-125.0
 32
0.0
 13
1353.0
 23
-125.0
 33
0.0
  0
ENDSEC
  0
EOF
