  0
SECTION
  2
HEADER
  9
$ACADVER
  1
AC1009
  9
$INSBASE
 10
0.0
 20
0.0
 30
0.0
  9
$EXTMIN
 10
-100.096163
 20
-540.947591
 30
0.0
  9
$EXTMAX
 10
1476.096213
 20
1000.094067
 30
0.0
  9
$LIMMIN
 10
0.0
 20
0.0
  9
$LIMMAX
 10
420.0
 20
297.0
  9
$ORTHOMODE
 70
     1
  9
$REGENMODE
 70
     1
  9
$FILLMODE
 70
     1
  9
$QTEXTMODE
 70
     0
  9
$MIRRTEXT
 70
     0
  9
$DRAGMODE
 70
     2
  9
$LTSCALE
 40
25.0
  9
$OSMODE
 70
     0
  9
$ATTMODE
 70
     1
  9
$TEXTSIZE
 40
3.0
  9
$TRACEWID
 40
10.0
  9
$TEXTSTYLE
  7
STANDARD
  9
$CLAYER
  8
0
  9
$CELTYPE
  6
BYLAYER
  9
$CECOLOR
 62
   256
  9
$DIMSCALE
 40
1.0
  9
$DIMASZ
 40
25.0
  9
$DIMEXO
 40
15.0
  9
$DIMDLI
 40
10.0
  9
$DIMRND
 40
0.0
  9
$DIMDLE
 40
1.25
  9
$DIMEXE
 40
15.0
  9
$DIMTP
 40
0.0
  9
$DIMTM
 40
0.0
  9
$DIMTXT
 40
25.0
  9
$DIMCEN
 40
-3.0
  9
$DIMTSZ
 40
0.0
  9
$DIMTOL
 70
     0
  9
$DIMLIM
 70
     0
  9
$DIMTIH
 70
     0
  9
$DIMTOH
 70
     0
  9
$DIMSE1
 70
     0
  9
$DIMSE2
 70
     0
  9
$DIMTAD
 70
     0
  9
$DIMZIN
 70
     1
  9
$DIMBLK
  1

  9
$DIMASO
 70
     0
  9
$DIMSHO
 70
     0
  9
$DIMPOST
  1

  9
$DIMAPOST
  1

  9
$DIMALT
 70
     0
  9
$DIMALTD
 70
     2
  9
$DIMALTF
 40
0.039
  9
$DIMLFAC
 40
1.0
  9
$DIMTOFL
 70
     0
  9
$DIMTVP
 40
1.5
  9
$DIMTIX
 70
     0
  9
$DIMSOXD
 70
     0
  9
$DIMSAH
 70
     0
  9
$DIMBLK1
  1

  9
$DIMBLK2
  1

  9
$DIMSTYLE
  2
-
  9
$DIMCLRD
 70
     0
  9
$DIMCLRE
 70
     0
  9
$DIMCLRT
 70
     0
  9
$DIMTFAC
 40
1.0
  9
$DIMGAP
 40
0.09
  9
$LUNITS
 70
     2
  9
$LUPREC
 70
     2
  9
$SKETCHINC
 40
10.0
  9
$FILLETRAD
 40
0.0
  9
$AUNITS
 70
     0
  9
$AUPREC
 70
     4
  9
$MENU
  1
acad
  9
$ELEVATION
 40
0.0
  9
$PELEVATION
 40
0.0
  9
$THICKNESS
 40
0.0
  9
$LIMCHECK
 70
     0
  9
$BLIPMODE
 70
     0
  9
$CHAMFERA
 40
0.0
  9
$CHAMFERB
 40
0.0
  9
$SKPOLY
 70
     1
  9
$TDCREATE
 40
2450098.538812
  9
$TDUPDATE
 40
2453073.533374
  9
$TDINDWG
 40
0.113862
  9
$TDUSRTIMER
 40
0.113862
  9
$USRTIMER
 70
     1
  9
$ANGBASE
 50
0.0
  9
$ANGDIR
 70
     0
  9
$PDMODE
 70
     3
  9
$PDSIZE
 40
0.0
  9
$PLINEWID
 40
0.0
  9
$COORDS
 70
     1
  9
$SPLFRAME
 70
     0
  9
$SPLINETYPE
 70
     6
  9
$SPLINESEGS
 70
     6
  9
$ATTDIA
 70
     0
  9
$ATTREQ
 70
     1
  9
$HANDLING
 70
 22529
  9
$HANDSEED
  5
8E1
  9
$SURFTAB1
 70
    12
  9
$SURFTAB2
 70
    12
  9
$SURFTYPE
 70
     6
  9
$SURFU
 70
    12
  9
$SURFV
 70
    12
  9
$UCSNAME
  2

  9
$UCSORG
 10
0.0
 20
0.0
 30
0.0
  9
$UCSXDIR
 10
1.0
 20
0.0
 30
0.0
  9
$UCSYDIR
 10
0.0
 20
1.0
 30
0.0
  9
$PUCSNAME
  2

  9
$PUCSORG
 10
0.0
 20
0.0
 30
0.0
  9
$PUCSXDIR
 10
1.0
 20
0.0
 30
0.0
  9
$PUCSYDIR
 10
0.0
 20
1.0
 30
0.0
  9
$USERI1
 70
     0
  9
$USERI2
 70
     0
  9
$USERI3
 70
     0
  9
$USERI4
 70
     0
  9
$USERI5
 70
     0
  9
$USERR1
 40
0.0
  9
$USERR2
 40
0.0
  9
$USERR3
 40
0.0
  9
$USERR4
 40
0.0
  9
$USERR5
 40
0.0
  9
$WORLDVIEW
 70
     0
  9
$SHADEDGE
 70
     3
  9
$SHADEDIF
 70
    70
  9
$TILEMODE
 70
     1
  9
$MAXACTVP
 70
    16
  9
$PLIMCHECK
 70
     0
  9
$PEXTMIN
 10
1.000000E+020
 20
1.000000E+020
 30
1.000000E+020
  9
$PEXTMAX
 10
-1.000000E+020
 20
-1.000000E+020
 30
-1.000000E+020
  9
$PLIMMIN
 10
0.0
 20
0.0
  9
$PLIMMAX
 10
12.0
 20
9.0
  9
$UNITMODE
 70
     0
  9
$VISRETAIN
 70
     0
  9
$PLINEGEN
 70
     0
  9
$PSLTSCALE
 70
     0
  0
ENDSEC
  0
SECTION
  2
TABLES
  0
TABLE
  2
VPORT
 70
     2
  0
VPORT
  2
*ACTIVE
 70
     0
 10
0.0
 20
0.0
 11
1.0
 21
1.0
 12
688.000025
 22
229.573238
 13
0.0
 23
0.0
 14
1000.0
 24
1000.0
 15
0.0
 25
0.0
 16
0.0
 26
0.0
 36
1.0
 17
0.0
 27
0.0
 37
0.0
 40
1558.788778
 41
1.825
 42
50.0
 43
0.0
 44
0.0
 50
0.0
 51
0.0
 71
     0
 72
  2000
 73
     1
 74
     2
 75
     0
 76
     0
 77
     0
 78
     0
  0
ENDTAB
  0
TABLE
  2
LTYPE
 70
     3
  0
LTYPE
  2
CONTINUOUS
 70
     0
  3
Solid line
 72
    65
 73
     0
 40
0.0
  0
LTYPE
  2
CENTER
 70
     0
  3
____ _ ____ _ ____ _ ____ _ ____ _ ____ _ ____
 72
    65
 73
     4
 40
2.0
 49
1.25
 49
-0.25
 49
0.25
 49
-0.25
  0
LTYPE
  2
DASHED
 70
     0
  3
__ __ __ __ __ __ __ __ __ __ __ __ __ __ __
 72
    65
 73
     2
 40
0.75
 49
0.5
 49
-0.25
  0
ENDTAB
  0
TABLE
  2
LAYER
 70
    12
  0
LAYER
  2
0
 70
     0
 62
     7
  6
CONTINUOUS
  0
LAYER
  2
DETAIL
 70
     0
 62
     2
  6
CONTINUOUS
  0
LAYER
  2
DIMENSIONS
 70
     1
 62
     7
  6
CONTINUOUS
  0
LAYER
  2
CENTER
 70
     1
 62
     4
  6
CENTER
  0
LAYER
  2
ORIGIN
 70
     0
 62
     6
  6
CONTINUOUS
  0
LAYER
  2
PLANNING
 70
     1
 62
     1
  6
DASHED
  0
LAYER
  2
STELTXT
 70
     1
 62
     4
  6
CONTINUOUS
  0
LAYER
  2
FLHDL
 70
     1
 62
     3
  6
CONTINUOUS
  0
LAYER
  2
FLHDR
 70
     1
 62
     3
  6
CONTINUOUS
  0
LAYER
  2
DIMFLHDL
 70
     1
 62
     7
  6
CONTINUOUS
  0
LAYER
  2
DIMFLHDR
 70
     1
 62
     7
  6
CONTINUOUS
  0
LAYER
  2
STELATT
 70
     0
 62
     7
  6
CONTINUOUS
  0
ENDTAB
  0
TABLE
  2
STYLE
 70
     1
  0
STYLE
  2
STANDARD
 70
     0
 40
0.0
 41
1.0
 50
0.0
 71
     0
 42
3.0
  3
simplex
  4

  0
ENDTAB
  0
TABLE
  2
VIEW
 70
     0
  0
ENDTAB
  0
TABLE
  2
UCS
 70
     0
  0
ENDTAB
  0
TABLE
  2
APPID
 70
     1
  0
APPID
  2
ACAD
 70
     0
  0
ENDTAB
  0
TABLE
  2
DIMSTYLE
 70
     1
  0
DIMSTYLE
  2
-
 70
     0
  3

  4

  5

  6

  7

 40
1.0
 41
0.18
 42
0.0625
 43
0.38
 44
0.18
 45
0.0
 46
0.0
 47
0.0
 48
0.0
140
0.18
141
0.09
142
0.0
143
25.4
144
1.0
145
0.0
146
1.0
147
0.09
 71
     0
 72
     0
 73
     1
 74
     1
 75
     0
 76
     0
 77
     0
 78
     0
170
     0
171
     2
172
     0
173
     0
174
     0
175
     0
176
     0
177
     0
178
     0
  0
ENDTAB
  0
ENDSEC
  0
SECTION
  2
BLOCKS
  0
BLOCK
  8
0
  2
$MODEL_SPACE
 70
     0
 10
0.0
 20
0.0
 30
0.0
  3
$MODEL_SPACE
  1

  0
ENDBLK
  5
765
  8
0
  0
BLOCK
 67
     1
  8
0
  2
$PAPER_SPACE
 70
     0
 10
0.0
 20
0.0
 30
0.0
  3
$PAPER_SPACE
  1

  0
ENDBLK
  5
763
 67
     1
  8
0
  0
BLOCK
  8
0
  2
GRILLE
 70
     0
 10
0.0
 20
0.0
 30
0.0
  3
GRILLE
  1

  0
ARC
  5
31
  8
DETAIL
 10
74.5
 20
29.7
 30
0.0
 40
3.0
 50
180.0
 51
0.0
  0
ARC
  5
32
  8
DETAIL
 10
74.5
 20
73.7
 30
0.0
 40
3.0
 50
0.0
 51
180.0
  0
LINE
  5
33
  8
DETAIL
 10
77.5
 20
29.7
 30
0.0
 11
77.5
 21
73.7
 31
0.0
  0
LINE
  5
34
  8
DETAIL
 10
71.5
 20
29.7
 30
0.0
 11
71.5
 21
73.7
 31
0.0
  0
ENDBLK
  5
35
  8
0
  0
ENDSEC
  0
SECTION
  2
ENTITIES
  0
TEXT
  5
36
  8
DIMENSIONS
 10
698.714286
 20
-200.0
 30
0.0
 40
25.0
  1
1476
  0
SOLID
  5
37
  8
DIMENSIONS
 10
25.0
 20
-229.166667
 30
0.0
 11
25.0
 21
-220.833333
 31
0.0
 12
0.0
 22
-225.0
 32
0.0
 13
0.0
 23
-225.0
 33
0.0
  0
SOLID
  5
38
  8
DIMENSIONS
 10
1451.0
 20
-229.166667
 30
0.0
 11
1451.0
 21
-220.833333
 31
0.0
 12
1476.0
 22
-225.0
 32
0.0
 13
1476.0
 23
-225.0
 33
0.0
  0
LINE
  5
39
  8
DIMENSIONS
 10
1451.0
 20
-225.0
 30
0.0
 11
25.0
 21
-225.0
 31
0.0
  0
LINE
  5
3A
  8
DIMENSIONS
 10
0.0
 20
-240.0
 30
0.0
 11
0.0
 21
-240.0
 31
0.0
  0
LINE
  5
3B
  8
DIMENSIONS
 10
1476.0
 20
5.0
 30
0.0
 11
1476.0
 21
-240.0
 31
0.0
  0
LINE
  5
3C
  8
PLANNING
 10
1576.0
 20
0.0
 30
0.0
 11
-100.0
 21
0.0
 31
0.0
  0
LINE
  5
3D
  8
PLANNING
 10
1576.0
 20
1000.0
 30
0.0
 11
-100.0
 21
1000.0
 31
0.0
  0
LINE
  5
3E
  8
PLANNING
 10
-100.0
 20
1000.0
 30
0.0
 11
-100.0
 21
0.0
 31
0.0
  0
LINE
  5
3F
  8
PLANNING
 10
1576.0
 20
0.0
 30
0.0
 11
1576.0
 21
1000.0
 31
0.0
  0
TEXT
  5
40
  8
DIMENSIONS
 10
-495.0
 20
458.333333
 30
0.0
 40
25.0
  1
1000
 50
90.0
  0
SOLID
  5
41
  8
DIMENSIONS
 10
-465.833333
 20
25.0
 30
0.0
 11
-474.166667
 21
25.0
 31
0.0
 12
-470.0
 22
0.0
 32
0.0
 13
-470.0
 23
0.0
 33
0.0
  0
SOLID
  5
42
  8
DIMENSIONS
 10
-465.833333
 20
975.0
 30
0.0
 11
-474.166667
 21
975.0
 31
0.0
 12
-470.0
 22
1000.0
 32
0.0
 13
-470.0
 23
1000.0
 33
0.0
  0
LINE
  5
43
  8
DIMENSIONS
 10
-470.0
 20
975.0
 30
0.0
 11
-470.0
 21
25.0
 31
0.0
  0
LINE
  5
44
  8
DIMENSIONS
 10
-455.0
 20
0.0
 30
0.0
 11
-455.0
 21
0.0
 31
0.0
  0
LINE
  5
45
  8
DIMENSIONS
 10
-15.0
 20
1000.0
 30
0.0
 11
-485.0
 21
1000.0
 31
0.0
  0
POLYLINE
  5
46
  8
ORIGIN
 66
     1
 10
0.0
 20
0.0
 30
0.0
  0
VERTEX
  5
8D8
  8
ORIGIN
 10
0.0
 20
0.0
 30
0.0
  0
VERTEX
  5
8D9
  8
ORIGIN
 10
-100.0
 20
-100.0
 30
0.0
  0
VERTEX
  5
8DA
  8
ORIGIN
 10
-100.0
 20
100.0
 30
0.0
  0
VERTEX
  5
8DB
  8
ORIGIN
 10
100.0
 20
-100.0
 30
0.0
  0
VERTEX
  5
8DC
  8
ORIGIN
 10
100.0
 20
100.0
 30
0.0
  0
VERTEX
  5
8DD
  8
ORIGIN
 10
0.0
 20
0.0
 30
0.0
  0
SEQEND
  5
8DE
  8
ORIGIN
  0
LINE
  5
5D
  8
DIMENSIONS
 10
131.0
 20
0.0
 30
0.0
 11
-485.0
 21
0.0
 31
0.0
  0
TEXT
  5
5F
  8
DIMENSIONS
 10
709.333333
 20
-100.0
 30
0.0
 40
25.0
  1
1185
  0
SOLID
  5
60
  8
DIMENSIONS
 10
1306.0
 20
-129.166667
 30
0.0
 11
1306.0
 21
-120.833333
 31
0.0
 12
1331.0
 22
-125.0
 32
0.0
 13
1331.0
 23
-125.0
 33
0.0
  0
SOLID
  5
61
  8
DIMENSIONS
 10
171.0
 20
-129.166667
 30
0.0
 11
171.0
 21
-120.833333
 31
0.0
 12
146.0
 22
-125.0
 32
0.0
 13
146.0
 23
-125.0
 33
0.0
  0
LINE
  5
62
  8
DIMENSIONS
 10
171.0
 20
-125.0
 30
0.0
 11
1306.0
 21
-125.0
 31
0.0
  0
LINE
  5
63
  8
DIMENSIONS
 10
1331.0
 20
260.0
 30
0.0
 11
1331.0
 21
-140.0
 31
0.0
  0
LINE
  5
64
  8
DIMENSIONS
 10
146.0
 20
260.0
 30
0.0
 11
146.0
 21
-140.0
 31
0.0
  0
LINE
  5
6B
  8
DIMENSIONS
 10
0.0
 20
5.0
 30
0.0
 11
0.0
 21
-240.0
 31
0.0
  0
LINE
  5
6D
  8
CENTER
 10
146.0
 20
423.0
 30
0.0
 11
146.0
 21
273.0
 31
0.0
  0
LINE
  5
6E
  8
CENTER
 10
1331.0
 20
423.0
 30
0.0
 11
1331.0
 21
273.0
 31
0.0
  0
LINE
  5
6F
  8
CENTER
 10
1331.0
 20
780.0
 30
0.0
 11
1331.0
 21
630.0
 31
0.0
  0
LINE
  5
70
  8
CENTER
 10
146.0
 20
780.0
 30
0.0
 11
146.0
 21
630.0
 31
0.0
  0
TEXT
  5
72
  8
DIMENSIONS
 10
2234.851071
 20
321.357143
 30
0.0
 40
25.0
  1
705
 50
90.0
  0
SOLID
  5
73
  8
DIMENSIONS
 10
2264.017738
 20
680.0
 30
0.0
 11
2255.684405
 21
680.0
 31
0.0
 12
2259.851071
 22
705.0
 32
0.0
 13
2259.851071
 23
705.0
 33
0.0
  0
SOLID
  5
74
  8
DIMENSIONS
 10
2264.017738
 20
25.0
 30
0.0
 11
2255.684405
 21
25.0
 31
0.0
 12
2259.851071
 22
0.0
 32
0.0
 13
2259.851071
 23
0.0
 33
0.0
  0
LINE
  5
75
  8
DIMENSIONS
 10
2259.851071
 20
25.0
 30
0.0
 11
2259.851071
 21
682.0
 31
0.0
  0
LINE
  5
76
  8
DIMENSIONS
 10
1421.0
 20
705.0
 30
0.0
 11
1786.0
 21
705.0
 31
0.0
  0
LINE
  5
77
  8
DIMENSIONS
 10
2274.851071
 20
0.0
 30
0.0
 11
2274.851071
 21
0.0
 31
0.0
  0
TEXT
  5
78
  8
DIMENSIONS
 10
2007.975111
 20
142.857143
 30
0.0
 40
25.0
  1
348
 50
90.0
  0
SOLID
  5
79
  8
DIMENSIONS
 10
2037.141778
 20
323.0
 30
0.0
 11
2028.808444
 21
323.0
 31
0.0
 12
2032.975111
 22
348.0
 32
0.0
 13
2032.975111
 23
348.0
 33
0.0
  0
SOLID
  5
7A
  8
DIMENSIONS
 10
2037.141778
 20
25.0
 30
0.0
 11
2028.808444
 21
25.0
 31
0.0
 12
2032.975111
 22
0.0
 32
0.0
 13
2032.975111
 23
0.0
 33
0.0
  0
LINE
  5
7B
  8
DIMENSIONS
 10
2032.975111
 20
25.0
 30
0.0
 11
2032.975111
 21
325.0
 31
0.0
  0
LINE
  5
7D
  8
DIMENSIONS
 10
1346.0
 20
0.0
 30
0.0
 11
2274.851071
 21
0.0
 31
0.0
  0
LINE
  5
7E
  8
CENTER
 10
221.0
 20
348.0
 30
0.0
 11
71.0
 21
348.0
 31
0.0
  0
LINE
  5
7F
  8
CENTER
 10
221.0
 20
705.0
 30
0.0
 11
71.0
 21
705.0
 31
0.0
  0
LINE
  5
80
  8
CENTER
 10
1406.0
 20
348.0
 30
0.0
 11
1256.0
 21
348.0
 31
0.0
  0
LINE
  5
81
  8
CENTER
 10
1406.0
 20
705.0
 30
0.0
 11
1256.0
 21
705.0
 31
0.0
  0
TEXT
  5
82
  8
DIMENSIONS
 10
698.714286
 20
1463.235678
 30
0.0
 40
25.0
  1
1476
  0
SOLID
  5
83
  8
DIMENSIONS
 10
1451.0
 20
1434.069012
 30
0.0
 11
1451.0
 21
1442.402345
 31
0.0
 12
1476.0
 22
1438.235678
 32
0.0
 13
1476.0
 23
1438.235678
 33
0.0
  0
SOLID
  5
84
  8
DIMENSIONS
 10
25.0
 20
1434.069012
 30
0.0
 11
25.0
 21
1442.402345
 31
0.0
 12
0.0
 22
1438.235678
 32
0.0
 13
0.0
 23
1438.235678
 33
0.0
  0
LINE
  5
85
  8
DIMENSIONS
 10
25.0
 20
1438.235678
 30
0.0
 11
1451.0
 21
1438.235678
 31
0.0
  0
LINE
  5
86
  8
DIMENSIONS
 10
1476.0
 20
1423.235678
 30
0.0
 11
1476.0
 21
1423.235678
 31
0.0
  0
LINE
  5
87
  8
DIMENSIONS
 10
0.0
 20
1015.0
 30
0.0
 11
0.0
 21
1453.235678
 31
0.0
  0
TEXT
  5
88
  8
DIMENSIONS
 10
244.357143
 20
1150.0
 30
0.0
 40
25.0
  1
738
  0
SOLID
  5
89
  8
DIMENSIONS
 10
25.0
 20
1120.833333
 30
0.0
 11
25.0
 21
1129.166667
 31
0.0
 12
0.0
 22
1125.0
 32
0.0
 13
0.0
 23
1125.0
 33
0.0
  0
SOLID
  5
8A
  8
DIMENSIONS
 10
712.5
 20
1120.833333
 30
0.0
 11
712.5
 21
1129.166667
 31
0.0
 12
737.5
 22
1125.0
 32
0.0
 13
737.5
 23
1125.0
 33
0.0
  0
LINE
  5
8B
  8
DIMENSIONS
 10
712.5
 20
1125.0
 30
0.0
 11
25.0
 21
1125.0
 31
0.0
  0
LINE
  5
8C
  8
DIMENSIONS
 10
738.5
 20
1102.148609
 30
0.0
 11
738.5
 21
1140.0
 31
0.0
  0
LINE
  5
8D
  8
DIMENSIONS
 10
1476.0
 20
1015.0
 30
0.0
 11
1476.0
 21
1453.235678
 31
0.0
  0
LINE
  5
93
  8
DETAIL
 10
0.0
 20
1000.0
 30
0.0
 11
0.0
 21
10.0
 31
0.0
  0
LINE
  5
94
  8
DETAIL
 10
1476.0
 20
1000.0
 30
0.0
 11
0.0
 21
1000.0
 31
0.0
  0
LINE
  5
95
  8
DETAIL
 10
1476.0
 20
10.0
 30
0.0
 11
1476.0
 21
1000.0
 31
0.0
  0
LINE
  5
96
  8
DETAIL
 10
146.0
 20
0.0
 30
0.0
 11
1331.0
 21
0.0
 31
0.0
  0
LINE
  5
BD
  8
DIMFLHDL
 10
0.0
 20
1015.0
 30
0.0
 11
0.0
 21
1140.0
 31
0.0
  0
LINE
  5
BE
  8
DIMFLHDL
 10
-245.0
 20
807.0
 30
0.0
 11
-245.0
 21
1140.0
 31
0.0
  0
LINE
  5
BF
  8
DIMFLHDL
 10
-25.0
 20
1125.0
 30
0.0
 11
-220.0
 21
1125.0
 31
0.0
  0
SOLID
  5
C0
  8
DIMFLHDL
 10
-25.0
 20
1120.833333
 30
0.0
 11
-25.0
 21
1129.166667
 31
0.0
 12
0.0
 22
1125.0
 32
0.0
 13
0.0
 23
1125.0
 33
0.0
  0
SOLID
  5
C1
  8
DIMFLHDL
 10
-220.0
 20
1120.833333
 30
0.0
 11
-220.0
 21
1129.166667
 31
0.0
 12
-245.0
 22
1125.0
 32
0.0
 13
-245.0
 23
1125.0
 33
0.0
  0
TEXT
  5
C2
  8
DIMFLHDL
 10
-154.642857
 20
1150.0
 30
0.0
 40
25.0
  1
245
  0
LINE
  5
C3
  8
DIMFLHDL
 10
-260.0
 20
790.0
 30
0.0
 11
-385.0
 21
790.0
 31
0.0
  0
LINE
  5
C4
  8
DIMFLHDL
 10
-260.0
 20
620.0
 30
0.0
 11
-385.0
 21
620.0
 31
0.0
  0
LINE
  5
C5
  8
DIMFLHDL
 10
-370.0
 20
765.0
 30
0.0
 11
-370.0
 21
645.0
 31
0.0
  0
SOLID
  5
C6
  8
DIMFLHDL
 10
-365.833333
 20
765.0
 30
0.0
 11
-374.166667
 21
765.0
 31
0.0
 12
-370.0
 22
790.0
 32
0.0
 13
-370.0
 23
790.0
 33
0.0
  0
SOLID
  5
C7
  8
DIMFLHDL
 10
-365.833333
 20
645.0
 30
0.0
 11
-374.166667
 21
645.0
 31
0.0
 12
-370.0
 22
620.0
 32
0.0
 13
-370.0
 23
620.0
 33
0.0
  0
TEXT
  5
C8
  8
DIMFLHDL
 10
-395.0
 20
675.238095
 30
0.0
 40
25.0
  1
170
 50
90.0
  0
TEXT
  5
C9
  8
DIMFLHDR
 10
1821.0
 20
677.238095
 30
0.0
 40
25.0
  1
170
 50
90.0
  0
SOLID
  5
CA
  8
DIMFLHDR
 10
1841.833333
 20
647.0
 30
0.0
 11
1850.166667
 21
647.0
 31
0.0
 12
1846.0
 22
622.0
 32
0.0
 13
1846.0
 23
622.0
 33
0.0
  0
SOLID
  5
CB
  8
DIMFLHDR
 10
1841.833333
 20
767.0
 30
0.0
 11
1850.166667
 21
767.0
 31
0.0
 12
1846.0
 22
792.0
 32
0.0
 13
1846.0
 23
792.0
 33
0.0
  0
LINE
  5
CC
  8
DIMFLHDR
 10
1846.0
 20
767.0
 30
0.0
 11
1846.0
 21
647.0
 31
0.0
  0
LINE
  5
CD
  8
DIMFLHDR
 10
1736.0
 20
622.0
 30
0.0
 11
1861.0
 21
622.0
 31
0.0
  0
LINE
  5
CE
  8
DIMFLHDR
 10
1736.0
 20
792.0
 30
0.0
 11
1861.0
 21
792.0
 31
0.0
  0
TEXT
  5
CF
  8
DIMFLHDR
 10
1566.357143
 20
1150.0
 30
0.0
 40
25.0
  1
245
  0
SOLID
  5
D0
  8
DIMFLHDR
 10
1696.0
 20
1120.833333
 30
0.0
 11
1696.0
 21
1129.166667
 31
0.0
 12
1721.0
 22
1125.0
 32
0.0
 13
1721.0
 23
1125.0
 33
0.0
  0
SOLID
  5
D1
  8
DIMFLHDR
 10
1501.0
 20
1120.833333
 30
0.0
 11
1501.0
 21
1129.166667
 31
0.0
 12
1476.0
 22
1125.0
 32
0.0
 13
1476.0
 23
1125.0
 33
0.0
  0
LINE
  5
D2
  8
DIMFLHDR
 10
1501.0
 20
1125.0
 30
0.0
 11
1696.0
 21
1125.0
 31
0.0
  0
LINE
  5
D3
  8
DIMFLHDR
 10
1721.0
 20
807.0
 30
0.0
 11
1721.0
 21
1140.0
 31
0.0
  0
INSERT
  5
D4
  8
DETAIL
  2
GRILLE
 10
669.0
 20
0.0
 30
0.0
  0
INSERT
  5
D5
  8
DETAIL
  2
GRILLE
 10
680.0
 20
0.0
 30
0.0
  0
INSERT
  5
D6
  8
DETAIL
  2
GRILLE
 10
691.0
 20
0.0
 30
0.0
  0
INSERT
  5
D7
  8
DETAIL
  2
GRILLE
 10
702.0
 20
0.0
 30
0.0
  0
INSERT
  5
D8
  8
DETAIL
  2
GRILLE
 10
713.0
 20
0.0
 30
0.0
  0
INSERT
  5
D9
  8
DETAIL
  2
GRILLE
 10
724.0
 20
0.0
 30
0.0
  0
INSERT
  5
DA
  8
DETAIL
  2
GRILLE
 10
735.0
 20
0.0
 30
0.0
  0
INSERT
  5
DB
  8
DETAIL
  2
GRILLE
 10
746.0
 20
0.0
 30
0.0
  0
LINE
  5
DC
  8
DETAIL
 10
146.0
 20
10.0
 30
0.0
 11
146.0
 21
0.0
 31
0.0
  0
LINE
  5
DD
  8
DETAIL
 10
1331.0
 20
10.0
 30
0.0
 11
1331.0
 21
0.0
 31
0.0
  0
LINE
  5
DE
  8
DETAIL
 10
0.0
 20
10.0
 30
0.0
 11
1476.0
 21
10.0
 31
0.0
  0
LINE
  5
DF
  8
DETAIL
  6
DASHED
 10
1331.0
 20
980.0
 30
0.0
 11
146.0
 21
980.0
 31
0.0
  0
LINE
  5
E0
  8
STELTXT
 10
-318.018697
 20
1238.374497
 30
0.0
 11
475.799569
 21
1238.374497
 31
0.0
  0
TEXT
  5
E1
  8
STELTXT
 10
-782.659632
 20
1226.545013
 30
0.0
 40
25.0
  1
FLUE OUTLET %%c344mm
  0
SOLID
  5
E2
  8
STELTXT
 10
724.298708
 20
1020.477043
 30
0.0
 11
718.257972
 21
1014.73649
 31
0.0
 12
738.5
 22
999.484559
 32
0.0
 13
738.5
 23
999.484559
 33
0.0
  0
LINE
  5
E3
  8
STELTXT
 10
721.27834
 20
1017.606767
 30
0.0
 11
475.799569
 21
1238.374497
 31
0.0
  0
LINE
  5
E4
  8
DIMENSIONS
 10
1831.0
 20
705.0
 30
0.0
 11
2274.851071
 21
705.0
 31
0.0
  0
LINE
  5
E5
  8
DIMFLHDR
 10
1476.0
 20
1015.0
 30
0.0
 11
1476.0
 21
1140.0
 31
0.0
  0
LINE
  5
EA
  8
DETAIL
 10
0.0
 20
107.408846
 30
0.0
 11
1476.0
 21
107.408846
 31
0.0
  0
INSERT
  5
121
  8
DETAIL
  2
GRILLE
 10
757.0
 20
0.0
 30
0.0
  0
INSERT
  5
122
  8
DETAIL
  2
GRILLE
 10
768.0
 20
0.0
 30
0.0
  0
TEXT
  5
123
  8
DIMENSIONS
 10
709.333333
 20
1304.39413
 30
0.0
 40
25.0
  1
1185
  0
LINE
  5
124
  8
DIMENSIONS
 10
171.0
 20
1283.621826
 30
0.0
 11
1306.0
 21
1283.621826
 31
0.0
  0
LINE
  5
125
  8
DIMENSIONS
 10
146.0
 20
1029.550579
 30
0.0
 11
146.0
 21
1298.621826
 31
0.0
  0
SOLID
  5
126
  8
DIMENSIONS
 10
171.0
 20
1287.788493
 30
0.0
 11
171.0
 21
1279.45516
 31
0.0
 12
146.0
 22
1283.621826
 32
0.0
 13
146.0
 23
1283.621826
 33
0.0
  0
LINE
  5
127
  8
DIMENSIONS
 10
1331.0
 20
1029.550579
 30
0.0
 11
1331.0
 21
1298.621826
 31
0.0
  0
SOLID
  5
128
  8
DIMENSIONS
 10
1306.0
 20
1287.788493
 30
0.0
 11
1306.0
 21
1279.45516
 31
0.0
 12
1331.0
 22
1283.621826
 32
0.0
 13
1331.0
 23
1283.621826
 33
0.0
  0
LINE
  5
129
  8
DETAIL
 10
146.0
 20
967.017803
 30
0.0
 11
146.0
 21
980.0
 31
0.0
  0
LINE
  5
12A
  8
DETAIL
 10
1331.0
 20
967.017803
 30
0.0
 11
1331.0
 21
980.0
 31
0.0
  0
INSERT
  5
12B
  8
DETAIL
  2
GRILLE
 10
779.0
 20
0.0
 30
0.0
  0
INSERT
  5
12C
  8
DETAIL
  2
GRILLE
 10
790.0
 20
0.0
 30
0.0
  0
INSERT
  5
12D
  8
DETAIL
  2
GRILLE
 10
801.0
 20
0.0
 30
0.0
  0
INSERT
  5
12E
  8
DETAIL
  2
GRILLE
 10
812.0
 20
0.0
 30
0.0
  0
INSERT
  5
12F
  8
DETAIL
  2
GRILLE
 10
823.0
 20
0.0
 30
0.0
  0
INSERT
  5
130
  8
DETAIL
  2
GRILLE
 10
834.0
 20
0.0
 30
0.0
  0
INSERT
  5
131
  8
DETAIL
  2
GRILLE
 10
845.0
 20
0.0
 30
0.0
  0
INSERT
  5
132
  8
DETAIL
  2
GRILLE
 10
856.0
 20
0.0
 30
0.0
  0
INSERT
  5
133
  8
DETAIL
  2
GRILLE
 10
867.0
 20
0.0
 30
0.0
  0
INSERT
  5
134
  8
DETAIL
  2
GRILLE
 10
878.0
 20
0.0
 30
0.0
  0
INSERT
  5
135
  8
DETAIL
  2
GRILLE
 10
889.0
 20
0.0
 30
0.0
  0
INSERT
  5
136
  8
DETAIL
  2
GRILLE
 10
900.0
 20
0.0
 30
0.0
  0
INSERT
  5
137
  8
DETAIL
  2
GRILLE
 10
911.0
 20
0.0
 30
0.0
  0
INSERT
  5
138
  8
DETAIL
  2
GRILLE
 10
922.0
 20
0.0
 30
0.0
  0
INSERT
  5
139
  8
DETAIL
  2
GRILLE
 10
933.0
 20
0.0
 30
0.0
  0
INSERT
  5
13A
  8
DETAIL
  2
GRILLE
 10
944.0
 20
0.0
 30
0.0
  0
INSERT
  5
13B
  8
DETAIL
  2
GRILLE
 10
955.0
 20
0.0
 30
0.0
  0
INSERT
  5
13C
  8
DETAIL
  2
GRILLE
 10
966.0
 20
0.0
 30
0.0
  0
INSERT
  5
13D
  8
DETAIL
  2
GRILLE
 10
977.0
 20
0.0
 30
0.0
  0
INSERT
  5
13E
  8
DETAIL
  2
GRILLE
 10
988.0
 20
0.0
 30
0.0
  0
INSERT
  5
13F
  8
DETAIL
  2
GRILLE
 10
999.0
 20
0.0
 30
0.0
  0
INSERT
  5
140
  8
DETAIL
  2
GRILLE
 10
1010.0
 20
0.0
 30
0.0
  0
INSERT
  5
141
  8
DETAIL
  2
GRILLE
 10
1021.0
 20
0.0
 30
0.0
  0
INSERT
  5
142
  8
DETAIL
  2
GRILLE
 10
1032.0
 20
0.0
 30
0.0
  0
INSERT
  5
143
  8
DETAIL
  2
GRILLE
 10
1043.0
 20
0.0
 30
0.0
  0
INSERT
  5
144
  8
DETAIL
  2
GRILLE
 10
1054.0
 20
0.0
 30
0.0
  0
INSERT
  5
145
  8
DETAIL
  2
GRILLE
 10
1065.0
 20
0.0
 30
0.0
  0
INSERT
  5
146
  8
DETAIL
  2
GRILLE
 10
1076.0
 20
0.0
 30
0.0
  0
INSERT
  5
147
  8
DETAIL
  2
GRILLE
 10
1087.0
 20
0.0
 30
0.0
  0
INSERT
  5
148
  8
DETAIL
  2
GRILLE
 10
1098.0
 20
0.0
 30
0.0
  0
INSERT
  5
149
  8
DETAIL
  2
GRILLE
 10
1109.0
 20
0.0
 30
0.0
  0
INSERT
  5
14A
  8
DETAIL
  2
GRILLE
 10
1120.0
 20
0.0
 30
0.0
  0
INSERT
  5
14B
  8
DETAIL
  2
GRILLE
 10
1131.0
 20
0.0
 30
0.0
  0
INSERT
  5
14C
  8
DETAIL
  2
GRILLE
 10
1142.0
 20
0.0
 30
0.0
  0
INSERT
  5
14D
  8
DETAIL
  2
GRILLE
 10
1164.0
 20
0.0
 30
0.0
  0
INSERT
  5
14E
  8
DETAIL
  2
GRILLE
 10
1153.0
 20
0.0
 30
0.0
  0
INSERT
  5
14F
  8
DETAIL
  2
GRILLE
 10
1230.0
 20
0.0
 30
0.0
  0
INSERT
  5
150
  8
DETAIL
  2
GRILLE
 10
1219.0
 20
0.0
 30
0.0
  0
INSERT
  5
151
  8
DETAIL
  2
GRILLE
 10
1208.0
 20
0.0
 30
0.0
  0
INSERT
  5
152
  8
DETAIL
  2
GRILLE
 10
1197.0
 20
0.0
 30
0.0
  0
INSERT
  5
153
  8
DETAIL
  2
GRILLE
 10
1186.0
 20
0.0
 30
0.0
  0
INSERT
  5
154
  8
DETAIL
  2
GRILLE
 10
1175.0
 20
0.0
 30
0.0
  0
INSERT
  5
155
  8
DETAIL
  2
GRILLE
 10
1252.0
 20
0.0
 30
0.0
  0
INSERT
  5
156
  8
DETAIL
  2
GRILLE
 10
1241.0
 20
0.0
 30
0.0
  0
INSERT
  5
157
  8
DETAIL
  2
GRILLE
 10
730.0
 20
0.0
 30
0.0
 41
-1.0
  0
INSERT
  5
158
  8
DETAIL
  2
GRILLE
 10
796.0
 20
0.0
 30
0.0
 41
-1.0
  0
INSERT
  5
159
  8
DETAIL
  2
GRILLE
 10
807.0
 20
0.0
 30
0.0
 41
-1.0
  0
INSERT
  5
15A
  8
DETAIL
  2
GRILLE
 10
741.0
 20
0.0
 30
0.0
 41
-1.0
  0
INSERT
  5
15B
  8
DETAIL
  2
GRILLE
 10
752.0
 20
0.0
 30
0.0
 41
-1.0
  0
INSERT
  5
15C
  8
DETAIL
  2
GRILLE
 10
763.0
 20
0.0
 30
0.0
 41
-1.0
  0
INSERT
  5
15D
  8
DETAIL
  2
GRILLE
 10
774.0
 20
0.0
 30
0.0
 41
-1.0
  0
INSERT
  5
15E
  8
DETAIL
  2
GRILLE
 10
785.0
 20
0.0
 30
0.0
 41
-1.0
  0
INSERT
  5
15F
  8
DETAIL
  2
GRILLE
 10
224.0
 20
0.0
 30
0.0
 41
-1.0
  0
INSERT
  5
160
  8
DETAIL
  2
GRILLE
 10
477.0
 20
0.0
 30
0.0
 41
-1.0
  0
INSERT
  5
161
  8
DETAIL
  2
GRILLE
 10
675.0
 20
0.0
 30
0.0
 41
-1.0
  0
INSERT
  5
162
  8
DETAIL
  2
GRILLE
 10
686.0
 20
0.0
 30
0.0
 41
-1.0
  0
INSERT
  5
163
  8
DETAIL
  2
GRILLE
 10
697.0
 20
0.0
 30
0.0
 41
-1.0
  0
INSERT
  5
164
  8
DETAIL
  2
GRILLE
 10
708.0
 20
0.0
 30
0.0
 41
-1.0
  0
INSERT
  5
165
  8
DETAIL
  2
GRILLE
 10
719.0
 20
0.0
 30
0.0
 41
-1.0
  0
INSERT
  5
166
  8
DETAIL
  2
GRILLE
 10
609.0
 20
0.0
 30
0.0
 41
-1.0
  0
INSERT
  5
167
  8
DETAIL
  2
GRILLE
 10
620.0
 20
0.0
 30
0.0
 41
-1.0
  0
INSERT
  5
168
  8
DETAIL
  2
GRILLE
 10
631.0
 20
0.0
 30
0.0
 41
-1.0
  0
INSERT
  5
169
  8
DETAIL
  2
GRILLE
 10
642.0
 20
0.0
 30
0.0
 41
-1.0
  0
INSERT
  5
16A
  8
DETAIL
  2
GRILLE
 10
653.0
 20
0.0
 30
0.0
 41
-1.0
  0
INSERT
  5
16B
  8
DETAIL
  2
GRILLE
 10
664.0
 20
0.0
 30
0.0
 41
-1.0
  0
INSERT
  5
16C
  8
DETAIL
  2
GRILLE
 10
543.0
 20
0.0
 30
0.0
 41
-1.0
  0
INSERT
  5
16D
  8
DETAIL
  2
GRILLE
 10
554.0
 20
0.0
 30
0.0
 41
-1.0
  0
INSERT
  5
16E
  8
DETAIL
  2
GRILLE
 10
565.0
 20
0.0
 30
0.0
 41
-1.0
  0
INSERT
  5
16F
  8
DETAIL
  2
GRILLE
 10
576.0
 20
0.0
 30
0.0
 41
-1.0
  0
INSERT
  5
170
  8
DETAIL
  2
GRILLE
 10
587.0
 20
0.0
 30
0.0
 41
-1.0
  0
INSERT
  5
171
  8
DETAIL
  2
GRILLE
 10
598.0
 20
0.0
 30
0.0
 41
-1.0
  0
INSERT
  5
172
  8
DETAIL
  2
GRILLE
 10
488.0
 20
0.0
 30
0.0
 41
-1.0
  0
INSERT
  5
173
  8
DETAIL
  2
GRILLE
 10
499.0
 20
0.0
 30
0.0
 41
-1.0
  0
INSERT
  5
174
  8
DETAIL
  2
GRILLE
 10
510.0
 20
0.0
 30
0.0
 41
-1.0
  0
INSERT
  5
175
  8
DETAIL
  2
GRILLE
 10
521.0
 20
0.0
 30
0.0
 41
-1.0
  0
INSERT
  5
176
  8
DETAIL
  2
GRILLE
 10
532.0
 20
0.0
 30
0.0
 41
-1.0
  0
INSERT
  5
177
  8
DETAIL
  2
GRILLE
 10
422.0
 20
0.0
 30
0.0
 41
-1.0
  0
INSERT
  5
178
  8
DETAIL
  2
GRILLE
 10
433.0
 20
0.0
 30
0.0
 41
-1.0
  0
INSERT
  5
179
  8
DETAIL
  2
GRILLE
 10
444.0
 20
0.0
 30
0.0
 41
-1.0
  0
INSERT
  5
17A
  8
DETAIL
  2
GRILLE
 10
455.0
 20
0.0
 30
0.0
 41
-1.0
  0
INSERT
  5
17B
  8
DETAIL
  2
GRILLE
 10
466.0
 20
0.0
 30
0.0
 41
-1.0
  0
INSERT
  5
17C
  8
DETAIL
  2
GRILLE
 10
356.0
 20
0.0
 30
0.0
 41
-1.0
  0
INSERT
  5
17D
  8
DETAIL
  2
GRILLE
 10
367.0
 20
0.0
 30
0.0
 41
-1.0
  0
INSERT
  5
17E
  8
DETAIL
  2
GRILLE
 10
378.0
 20
0.0
 30
0.0
 41
-1.0
  0
INSERT
  5
17F
  8
DETAIL
  2
GRILLE
 10
389.0
 20
0.0
 30
0.0
 41
-1.0
  0
INSERT
  5
180
  8
DETAIL
  2
GRILLE
 10
400.0
 20
0.0
 30
0.0
 41
-1.0
  0
INSERT
  5
181
  8
DETAIL
  2
GRILLE
 10
411.0
 20
0.0
 30
0.0
 41
-1.0
  0
INSERT
  5
182
  8
DETAIL
  2
GRILLE
 10
290.0
 20
0.0
 30
0.0
 41
-1.0
  0
INSERT
  5
183
  8
DETAIL
  2
GRILLE
 10
301.0
 20
0.0
 30
0.0
 41
-1.0
  0
INSERT
  5
184
  8
DETAIL
  2
GRILLE
 10
323.0
 20
0.0
 30
0.0
 41
-1.0
  0
INSERT
  5
185
  8
DETAIL
  2
GRILLE
 10
312.0
 20
0.0
 30
0.0
 41
-1.0
  0
INSERT
  5
186
  8
DETAIL
  2
GRILLE
 10
334.0
 20
0.0
 30
0.0
 41
-1.0
  0
INSERT
  5
187
  8
DETAIL
  2
GRILLE
 10
345.0
 20
0.0
 30
0.0
 41
-1.0
  0
INSERT
  5
188
  8
DETAIL
  2
GRILLE
 10
235.0
 20
0.0
 30
0.0
 41
-1.0
  0
INSERT
  5
189
  8
DETAIL
  2
GRILLE
 10
279.0
 20
0.0
 30
0.0
 41
-1.0
  0
INSERT
  5
18A
  8
DETAIL
  2
GRILLE
 10
268.0
 20
0.0
 30
0.0
 41
-1.0
  0
INSERT
  5
18B
  8
DETAIL
  2
GRILLE
 10
257.0
 20
0.0
 30
0.0
 41
-1.0
  0
INSERT
  5
18C
  8
DETAIL
  2
GRILLE
 10
246.0
 20
0.0
 30
0.0
 41
-1.0
  0
LINE
  5
28A
  8
STELTXT
 10
1566.587673
 20
257.587673
 30
0.0
 11
2310.922108
 21
257.587673
 31
0.0
  0
TEXT
  5
28B
  8
DIMENSIONS
 10
1751.0
 20
27.261905
 30
0.0
 40
25.0
  1
95
 50
90.0
  0
SOLID
  5
28C
  8
DIMENSIONS
 10
1696.833333
 20
70.0
 30
0.0
 11
1705.166667
 21
70.0
 31
0.0
 12
1701.0
 22
95.0
 32
0.0
 13
1701.0
 23
95.0
 33
0.0
  0
LINE
  5
294
  8
DIMENSIONS
 10
1701.0
 20
70.0
 30
0.0
 11
1701.0
 21
25.0
 31
0.0
  0
SOLID
  5
295
  8
DIMENSIONS
 10
1696.833333
 20
25.0
 30
0.0
 11
1705.166667
 21
25.0
 31
0.0
 12
1701.0
 22
0.0
 32
0.0
 13
1701.0
 23
0.0
 33
0.0
  0
LINE
  5
296
  8
DIMENSIONS
 10
1492.483585
 20
95.0
 30
0.0
 11
1716.0
 21
95.0
 31
0.0
  0
LINE
  5
2A1
  8
DETAIL
 10
1228.0
 20
985.0
 30
0.0
 11
1452.0
 21
985.0
 31
0.0
  0
LINE
  5
2A2
  8
DETAIL
 10
1452.0
 20
896.0
 30
0.0
 11
1228.0
 21
896.0
 31
0.0
  0
LINE
  5
2A4
  8
DETAIL
 10
1228.0
 20
985.0
 30
0.0
 11
1228.0
 21
896.0
 31
0.0
  0
LINE
  5
2BA
  8
DIMENSIONS
 10
1421.0
 20
348.0
 30
0.0
 11
2045.693929
 21
348.0
 31
0.0
  0
LINE
  5
2BB
  8
DETAIL
 10
1452.0
 20
985.0
 30
0.0
 11
1452.0
 21
896.0
 31
0.0
  0
TEXT
  5
2C5
  8
STELTXT
 10
2332.776706
 20
246.330146
 30
0.0
 40
25.0
  1
GAS INLET 1 " BSP
  0
TEXT
  5
2C6
  8
STELTXT
 10
2577.961673
 20
250.086234
 30
0.0
 40
15.0
  1
/
  0
TEXT
  5
2C7
  8
STELTXT
 10
2587.454488
 20
247.374188
 30
0.0
 40
15.0
  1
2
  0
TEXT
  5
2C8
  8
STELTXT
 10
2571.18109
 20
256.188338
 30
0.0
 40
15.0
  1
1
  0
LINE
  5
6D9
  8
DETAIL
 10
1476.0
 20
727.0
 30
0.0
 11
0.0
 21
727.0
 31
0.0
  0
LINE
  5
6DA
  8
DETAIL
 10
1476.0
 20
762.0
 30
0.0
 11
0.0
 21
762.0
 31
0.0
  0
LINE
  5
6DB
  8
DETAIL
 10
799.5
 20
1000.0
 30
0.0
 11
799.5
 21
762.0
 31
0.0
  0
TEXT
  5
6E5
  8
STELTXT
 10
1881.94833
 20
1099.851092
 30
0.0
 40
25.0
  1
1 x 2" SIDE FACING FLOW FLANGE
  0
LINE
  5
6E6
  8
STELTXT
 10
1731.848993
 20
730.619618
 30
0.0
 11
1799.309033
 21
1112.774714
 31
0.0
  0
LINE
  5
6E7
  8
STELTXT
 10
1851.997931
 20
1112.774714
 30
0.0
 11
1799.309033
 21
1112.774714
 31
0.0
  0
LINE
  5
6E8
  8
STELTXT
 10
1861.707118
 20
1112.774714
 30
0.0
 11
1809.018219
 21
1112.774714
 31
0.0
  0
SOLID
  5
6E9
  8
STELTXT
 10
1735.95222
 20
729.895295
 30
0.0
 11
1727.745767
 21
731.343941
 31
0.0
 12
1727.503054
 22
706.00026
 32
0.0
 13
1727.503054
 23
706.00026
 33
0.0
  0
TEXT
  5
6EA
  8
STELTXT
 10
1720.300653
 20
418.130062
 30
0.0
 40
25.0
  1
1 x 2" SIDE FACING RETURN TAPPING
  0
LINE
  5
6EB
  8
STELTXT
 10
1361.541967
 20
356.902032
 30
0.0
 11
1630.939823
 21
429.680808
 31
0.0
  0
LINE
  5
6EC
  8
STELTXT
 10
1698.592738
 20
429.680808
 30
0.0
 11
1630.939823
 21
429.680808
 31
0.0
  0
SOLID
  5
6ED
  8
STELTXT
 10
1362.62865
 20
352.879566
 30
0.0
 11
1360.455283
 21
360.924498
 31
0.0
 12
1337.407172
 22
350.381933
 32
0.0
 13
1337.407172
 23
350.381933
 33
0.0
  0
TEXT
  5
6EE
  8
STELTXT
 10
-1064.814701
 20
1099.851092
 30
0.0
 40
25.0
  1
1 x 2" SIDE FACING FLOW FLANGE
  0
LINE
  5
6EF
  8
STELTXT
 10
-252.810602
 20
730.619618
 30
0.0
 11
-320.270641
 21
1112.774714
 31
0.0
  0
LINE
  5
6F0
  8
STELTXT
 10
-372.95954
 20
1112.774714
 30
0.0
 11
-320.270641
 21
1112.774714
 31
0.0
  0
LINE
  5
6F1
  8
STELTXT
 10
-382.668726
 20
1112.774714
 30
0.0
 11
-329.979828
 21
1112.774714
 31
0.0
  0
SOLID
  5
6F2
  8
STELTXT
 10
-256.913828
 20
729.895295
 30
0.0
 11
-248.707375
 21
731.343941
 31
0.0
 12
-248.464662
 22
706.00026
 32
0.0
 13
-248.464662
 23
706.00026
 33
0.0
  0
LINE
  5
6F3
  8
STELTXT
 10
117.496425
 20
356.902032
 30
0.0
 11
-151.901432
 21
429.680808
 31
0.0
  0
SOLID
  5
6F4
  8
STELTXT
 10
116.409741
 20
352.879566
 30
0.0
 11
118.583108
 21
360.924498
 31
0.0
 12
141.631219
 22
350.381933
 32
0.0
 13
141.631219
 23
350.381933
 33
0.0
  0
TEXT
  5
6F5
  8
STELTXT
 10
-969.833691
 20
418.130062
 30
0.0
 40
25.0
  1
1 x 2" SIDE FACING RETURN TAPPING
  0
LINE
  5
6F6
  8
STELTXT
 10
-219.554347
 20
429.680808
 30
0.0
 11
-151.901432
 21
429.680808
 31
0.0
  0
LINE
  5
6F7
  8
DETAIL
  6
DASHED
 10
910.5
 20
1000.0
 30
0.0
 11
910.5
 21
980.0
 31
0.0
  0
LINE
  5
6F8
  8
DETAIL
  6
DASHED
 10
566.5
 20
1000.0
 30
0.0
 11
566.5
 21
980.0
 31
0.0
  0
LINE
  5
6F9
  8
DIMENSIONS
  6
CONTINUOUS
 10
566.5
 20
1015.0
 30
0.0
 11
566.5
 21
1061.710119
 31
0.0
  0
LINE
  5
6FA
  8
DIMENSIONS
  6
CONTINUOUS
 10
910.5
 20
1015.0
 30
0.0
 11
910.5
 21
1061.710119
 31
0.0
  0
LINE
  5
6FB
  8
DIMENSIONS
  6
CONTINUOUS
 10
591.5
 20
1046.710119
 30
0.0
 11
885.5
 21
1046.710119
 31
0.0
  0
SOLID
  5
6FC
  8
DIMENSIONS
  6
CONTINUOUS
 10
591.5
 20
1050.876785
 30
0.0
 11
591.5
 21
1042.543452
 31
0.0
 12
566.5
 22
1046.710119
 32
0.0
 13
566.5
 23
1046.710119
 33
0.0
  0
SOLID
  5
6FD
  8
DIMENSIONS
  6
CONTINUOUS
 10
885.5
 20
1050.876785
 30
0.0
 11
885.5
 21
1042.543452
 31
0.0
 12
910.5
 22
1046.710119
 32
0.0
 13
910.5
 23
1046.710119
 33
0.0
  0
TEXT
  5
6FE
  8
DIMENSIONS
  6
CONTINUOUS
 10
694.452381
 20
1071.710119
 30
0.0
 40
25.0
  1
%%c344
  0
LINE
  5
6FF
  8
CENTER
 10
738.5
 20
1066.35545
 30
0.0
 11
738.5
 21
925.0
 31
0.0
  0
ATTDEF
  5
733
  8
STELATT
 10
646.622292
 20
-540.853572
 30
0.0
 40
40.0
  1
CXSi 180
 72
     4
 11
739.955625
 21
-520.853572
 31
0.0
  3

  2
MODEL
 70
     2
  0
ATTDEF
  5
734
  8
STELATT
 10
654.016254
 20
-474.324227
 30
0.0
 40
40.0
  1
CONCORD 
 72
     4
 11
722.587682
 21
-454.324227
 31
0.0
  3

  2
TYPE
 70
     2
  0
ATTDEF
  5
735
  8
STELATT
 10
489.254349
 20
-404.324227
 30
0.0
 40
40.0
  1
IDEAL
 72
     4
 11
722.587682
 21
-384.324227
 31
0.0
  3

  2
MANUFACTURER
 70
     2
  0
CIRCLE
  5
770
  8
DETAIL
 10
1311.779294
 20
940.5
 30
0.0
 40
3.5
  0
CIRCLE
  5
771
  8
DETAIL
 10
1318.095833
 20
915.685769
 30
0.0
 40
3.5
  0
CIRCLE
  5
772
  8
DETAIL
 10
1318.095833
 20
965.314231
 30
0.0
 40
3.5
  0
LINE
  5
773
  8
DETAIL
 10
1406.5
 20
954.5
 30
0.0
 11
1406.5
 21
949.318859
 31
0.0
  0
CIRCLE
  5
774
  8
DETAIL
 10
1406.5
 20
940.5
 30
0.0
 40
14.0
  0
CIRCLE
  5
775
  8
DETAIL
 10
1354.600949
 20
940.5
 30
0.0
 40
3.5
  0
LINE
  5
778
  8
FLHDL
 10
-227.0
 20
790.0
 30
0.0
 11
-227.0
 21
620.0
 31
0.0
  0
LINE
  5
779
  8
FLHDL
 10
-30.0
 20
749.0
 30
0.0
 11
-30.0
 21
661.0
 31
0.0
  0
LINE
  5
77A
  8
FLHDL
 10
-245.0
 20
790.0
 30
0.0
 11
-245.0
 21
620.0
 31
0.0
  0
LINE
  5
77B
  8
FLHDL
 10
-227.0
 20
665.0
 30
0.0
 11
-38.0
 21
665.0
 31
0.0
  0
LINE
  5
77C
  8
FLHDL
 10
-245.0
 20
620.0
 30
0.0
 11
-227.0
 21
620.0
 31
0.0
  0
LINE
  5
77D
  8
FLHDL
 10
-30.0
 20
665.0
 30
0.0
 11
0.0
 21
665.0
 31
0.0
  0
LINE
  5
77E
  8
FLHDL
 10
-34.0
 20
661.0
 30
0.0
 11
-30.0
 21
661.0
 31
0.0
  0
LINE
  5
77F
  8
FLHDL
 10
-34.0
 20
661.0
 30
0.0
 11
-38.0
 21
665.0
 31
0.0
  0
LINE
  5
780
  8
FLHDL
 10
-69.367947
 20
745.0
 30
0.0
 11
-38.0
 21
745.0
 31
0.0
  0
LINE
  5
781
  8
FLHDL
 10
-164.312719
 20
745.0
 30
0.0
 11
-147.159667
 21
745.0
 31
0.0
  0
LINE
  5
782
  8
FLHDL
 10
-227.0
 20
745.0
 30
0.0
 11
-194.632053
 21
745.0
 31
0.0
  0
LINE
  5
783
  8
FLHDL
 10
-245.0
 20
790.0
 30
0.0
 11
-227.0
 21
790.0
 31
0.0
  0
LINE
  5
784
  8
FLHDL
 10
-194.632053
 20
753.0
 30
0.0
 11
-164.312719
 21
753.0
 31
0.0
  0
LINE
  5
785
  8
FLHDL
 10
-194.632053
 20
753.0
 30
0.0
 11
-194.632053
 21
745.0
 31
0.0
  0
LINE
  5
786
  8
FLHDL
 10
-164.312719
 20
753.0
 30
0.0
 11
-164.312719
 21
745.0
 31
0.0
  0
LINE
  5
787
  8
FLHDL
 10
-116.840333
 20
745.0
 30
0.0
 11
-99.687281
 21
745.0
 31
0.0
  0
LINE
  5
788
  8
FLHDL
 10
-147.159667
 20
753.0
 30
0.0
 11
-116.840333
 21
753.0
 31
0.0
  0
LINE
  5
789
  8
FLHDL
 10
-147.159667
 20
753.0
 30
0.0
 11
-147.159667
 21
745.0
 31
0.0
  0
LINE
  5
78A
  8
FLHDL
 10
-116.840333
 20
753.0
 30
0.0
 11
-116.840333
 21
745.0
 31
0.0
  0
LINE
  5
78B
  8
FLHDL
 10
-69.367947
 20
753.0
 30
0.0
 11
-99.687281
 21
753.0
 31
0.0
  0
LINE
  5
78C
  8
FLHDL
 10
-99.687281
 20
753.0
 30
0.0
 11
-99.687281
 21
745.0
 31
0.0
  0
LINE
  5
78D
  8
FLHDL
 10
-69.367947
 20
753.0
 30
0.0
 11
-69.367947
 21
745.0
 31
0.0
  0
LINE
  5
78E
  8
FLHDL
 10
-30.0
 20
745.0
 30
0.0
 11
0.0
 21
745.0
 31
0.0
  0
LINE
  5
78F
  8
FLHDL
 10
-34.0
 20
749.0
 30
0.0
 11
-30.0
 21
749.0
 31
0.0
  0
LINE
  5
790
  8
FLHDL
 10
-34.0
 20
749.0
 30
0.0
 11
-38.0
 21
745.0
 31
0.0
  0
LINE
  5
791
  8
FLHDR
 10
1640.312719
 20
745.0
 30
0.0
 11
1623.159667
 21
745.0
 31
0.0
  0
LINE
  5
792
  8
FLHDR
 10
1703.0
 20
665.0
 30
0.0
 11
1514.0
 21
665.0
 31
0.0
  0
LINE
  5
793
  8
FLHDR
 10
1506.0
 20
749.0
 30
0.0
 11
1506.0
 21
661.0
 31
0.0
  0
LINE
  5
794
  8
FLHDR
 10
1506.0
 20
665.0
 30
0.0
 11
1476.0
 21
665.0
 31
0.0
  0
LINE
  5
795
  8
FLHDR
 10
1510.0
 20
661.0
 30
0.0
 11
1506.0
 21
661.0
 31
0.0
  0
LINE
  5
796
  8
FLHDR
 10
1510.0
 20
661.0
 30
0.0
 11
1514.0
 21
665.0
 31
0.0
  0
LINE
  5
797
  8
FLHDR
 10
1545.367947
 20
745.0
 30
0.0
 11
1514.0
 21
745.0
 31
0.0
  0
LINE
  5
798
  8
FLHDR
 10
1506.0
 20
745.0
 30
0.0
 11
1476.0
 21
745.0
 31
0.0
  0
LINE
  5
799
  8
FLHDR
 10
1510.0
 20
749.0
 30
0.0
 11
1506.0
 21
749.0
 31
0.0
  0
LINE
  5
79A
  8
FLHDR
 10
1510.0
 20
749.0
 30
0.0
 11
1514.0
 21
745.0
 31
0.0
  0
LINE
  5
79B
  8
FLHDR
 10
1592.840333
 20
745.0
 30
0.0
 11
1575.687281
 21
745.0
 31
0.0
  0
LINE
  5
79C
  8
FLHDR
 10
1545.367947
 20
753.0
 30
0.0
 11
1575.687281
 21
753.0
 31
0.0
  0
LINE
  5
79D
  8
FLHDR
 10
1545.367947
 20
753.0
 30
0.0
 11
1545.367947
 21
745.0
 31
0.0
  0
LINE
  5
79E
  8
FLHDR
 10
1575.687281
 20
753.0
 30
0.0
 11
1575.687281
 21
745.0
 31
0.0
  0
LINE
  5
79F
  8
FLHDR
 10
1623.159667
 20
753.0
 30
0.0
 11
1592.840333
 21
753.0
 31
0.0
  0
LINE
  5
7A0
  8
FLHDR
 10
1592.840333
 20
753.0
 30
0.0
 11
1592.840333
 21
745.0
 31
0.0
  0
LINE
  5
7A1
  8
FLHDR
 10
1623.159667
 20
753.0
 30
0.0
 11
1623.159667
 21
745.0
 31
0.0
  0
LINE
  5
7A2
  8
FLHDR
 10
1703.0
 20
790.0
 30
0.0
 11
1703.0
 21
620.0
 31
0.0
  0
LINE
  5
7A3
  8
FLHDR
 10
1721.0
 20
790.0
 30
0.0
 11
1721.0
 21
620.0
 31
0.0
  0
LINE
  5
7A4
  8
FLHDR
 10
1721.0
 20
620.0
 30
0.0
 11
1703.0
 21
620.0
 31
0.0
  0
LINE
  5
7A5
  8
FLHDR
 10
1703.0
 20
745.0
 30
0.0
 11
1670.632053
 21
745.0
 31
0.0
  0
LINE
  5
7A6
  8
FLHDR
 10
1670.632053
 20
753.0
 30
0.0
 11
1640.312719
 21
753.0
 31
0.0
  0
LINE
  5
7A7
  8
FLHDR
 10
1640.312719
 20
753.0
 30
0.0
 11
1640.312719
 21
745.0
 31
0.0
  0
LINE
  5
7A8
  8
FLHDR
 10
1670.632053
 20
753.0
 30
0.0
 11
1670.632053
 21
745.0
 31
0.0
  0
LINE
  5
7A9
  8
FLHDR
 10
1721.0
 20
790.0
 30
0.0
 11
1703.0
 21
790.0
 31
0.0
  0
LINE
  5
7B6
  8
CENTER
 10
1404.0
 20
170.0
 30
0.0
 11
1404.0
 21
20.0
 31
0.0
  0
LINE
  5
7B7
  8
CENTER
 10
1479.0
 20
95.0
 30
0.0
 11
1329.0
 21
95.0
 31
0.0
  0
LINE
  5
7B8
  8
STELTXT
 10
1421.67767
 20
112.67767
 30
0.0
 11
1566.587673
 21
257.587673
 31
0.0
  0
SOLID
  5
7B9
  8
STELTXT
 10
1418.731391
 20
115.623948
 30
0.0
 11
1424.623948
 21
109.731391
 31
0.0
 12
1404.0
 22
95.0
 32
0.0
 13
1404.0
 23
95.0
 33
0.0
  0
TEXT
  5
7BA
  8
DIMENSIONS
 10
1422.658959
 20
-110.327862
 30
0.0
 40
25.0
  1
72
  0
LINE
  5
7BB
  8
DIMENSIONS
 10
1419.482978
 20
-125.0
 30
0.0
 11
1469.479169
 21
-125.0
 31
0.0
  0
LINE
  5
7BC
  8
DIMENSIONS
 10
1404.0
 20
5.0
 30
0.0
 11
1404.0
 21
-140.0
 31
0.0
  0
SOLID
  5
7BD
  8
DIMENSIONS
 10
1429.0
 20
-129.166667
 30
0.0
 11
1429.0
 21
-120.833333
 31
0.0
 12
1404.0
 22
-125.0
 32
0.0
 13
1404.0
 23
-125.0
 33
0.0
  0
SOLID
  5
7BE
  8
DIMENSIONS
 10
1451.0
 20
-129.166667
 30
0.0
 11
1451.0
 21
-120.833333
 31
0.0
 12
1476.0
 22
-125.0
 32
0.0
 13
1476.0
 23
-125.0
 33
0.0
  0
ENDSEC
  0
EOF
