  0
SECTION
  2
HEADER
  9
$ACADVER
  1
AC1009
  9
$INSBASE
 10
0.0
 20
0.0
 30
0.0
  9
$EXTMIN
 10
-100.060891
 20
-544.434813
 30
0.0
  9
$EXTMAX
 10
1476.062844
 20
1140.067977
 30
0.0
  9
$LIMMIN
 10
0.0
 20
0.0
  9
$LIMMAX
 10
420.0
 20
297.0
  9
$ORTHOMODE
 70
     1
  9
$REGENMODE
 70
     1
  9
$FILLMODE
 70
     1
  9
$QTEXTMODE
 70
     0
  9
$MIRRTEXT
 70
     0
  9
$DRAGMODE
 70
     2
  9
$LTSCALE
 40
25.0
  9
$OSMODE
 70
     0
  9
$ATTMODE
 70
     1
  9
$TEXTSIZE
 40
3.0
  9
$TRACEWID
 40
10.0
  9
$TEXTSTYLE
  7
STANDARD
  9
$CLAYER
  8
0
  9
$CELTYPE
  6
BYLAYER
  9
$CECOLOR
 62
   256
  9
$DIMSCALE
 40
1.0
  9
$DIMASZ
 40
25.0
  9
$DIMEXO
 40
15.0
  9
$DIMDLI
 40
10.0
  9
$DIMRND
 40
0.0
  9
$DIMDLE
 40
1.25
  9
$DIMEXE
 40
15.0
  9
$DIMTP
 40
0.0
  9
$DIMTM
 40
0.0
  9
$DIMTXT
 40
25.0
  9
$DIMCEN
 40
-3.0
  9
$DIMTSZ
 40
0.0
  9
$DIMTOL
 70
     0
  9
$DIMLIM
 70
     0
  9
$DIMTIH
 70
     0
  9
$DIMTOH
 70
     0
  9
$DIMSE1
 70
     0
  9
$DIMSE2
 70
     0
  9
$DIMTAD
 70
     0
  9
$DIMZIN
 70
     1
  9
$DIMBLK
  1

  9
$DIMASO
 70
     0
  9
$DIMSHO
 70
     0
  9
$DIMPOST
  1

  9
$DIMAPOST
  1

  9
$DIMALT
 70
     0
  9
$DIMALTD
 70
     2
  9
$DIMALTF
 40
0.039
  9
$DIMLFAC
 40
1.0
  9
$DIMTOFL
 70
     0
  9
$DIMTVP
 40
1.5
  9
$DIMTIX
 70
     0
  9
$DIMSOXD
 70
     0
  9
$DIMSAH
 70
     0
  9
$DIMBLK1
  1

  9
$DIMBLK2
  1

  9
$DIMSTYLE
  2
-
  9
$DIMCLRD
 70
     0
  9
$DIMCLRE
 70
     0
  9
$DIMCLRT
 70
     0
  9
$DIMTFAC
 40
1.0
  9
$DIMGAP
 40
0.09
  9
$LUNITS
 70
     2
  9
$LUPREC
 70
     2
  9
$SKETCHINC
 40
10.0
  9
$FILLETRAD
 40
0.0
  9
$AUNITS
 70
     0
  9
$AUPREC
 70
     4
  9
$MENU
  1
acad
  9
$ELEVATION
 40
0.0
  9
$PELEVATION
 40
0.0
  9
$THICKNESS
 40
0.0
  9
$LIMCHECK
 70
     0
  9
$BLIPMODE
 70
     0
  9
$CHAMFERA
 40
0.0
  9
$CHAMFERB
 40
0.0
  9
$SKPOLY
 70
     1
  9
$TDCREATE
 40
2450098.618908
  9
$TDUPDATE
 40
2453073.533383
  9
$TDINDWG
 40
0.071254
  9
$TDUSRTIMER
 40
0.071254
  9
$USRTIMER
 70
     1
  9
$ANGBASE
 50
0.0
  9
$ANGDIR
 70
     0
  9
$PDMODE
 70
     3
  9
$PDSIZE
 40
0.0
  9
$PLINEWID
 40
0.0
  9
$COORDS
 70
     1
  9
$SPLFRAME
 70
     0
  9
$SPLINETYPE
 70
     6
  9
$SPLINESEGS
 70
     6
  9
$ATTDIA
 70
     0
  9
$ATTREQ
 70
     1
  9
$HANDLING
 70
 22529
  9
$HANDSEED
  5
3B3
  9
$SURFTAB1
 70
    12
  9
$SURFTAB2
 70
    12
  9
$SURFTYPE
 70
     6
  9
$SURFU
 70
    12
  9
$SURFV
 70
    12
  9
$UCSNAME
  2

  9
$UCSORG
 10
0.0
 20
0.0
 30
0.0
  9
$UCSXDIR
 10
1.0
 20
0.0
 30
0.0
  9
$UCSYDIR
 10
0.0
 20
1.0
 30
0.0
  9
$PUCSNAME
  2

  9
$PUCSORG
 10
0.0
 20
0.0
 30
0.0
  9
$PUCSXDIR
 10
1.0
 20
0.0
 30
0.0
  9
$PUCSYDIR
 10
0.0
 20
1.0
 30
0.0
  9
$USERI1
 70
     0
  9
$USERI2
 70
     0
  9
$USERI3
 70
     0
  9
$USERI4
 70
     0
  9
$USERI5
 70
     0
  9
$USERR1
 40
0.0
  9
$USERR2
 40
0.0
  9
$USERR3
 40
0.0
  9
$USERR4
 40
0.0
  9
$USERR5
 40
0.0
  9
$WORLDVIEW
 70
     0
  9
$SHADEDGE
 70
     3
  9
$SHADEDIF
 70
    70
  9
$TILEMODE
 70
     1
  9
$MAXACTVP
 70
    16
  9
$PLIMCHECK
 70
     0
  9
$PEXTMIN
 10
1.000000E+020
 20
1.000000E+020
 30
1.000000E+020
  9
$PEXTMAX
 10
-1.000000E+020
 20
-1.000000E+020
 30
-1.000000E+020
  9
$PLIMMIN
 10
0.0
 20
0.0
  9
$PLIMMAX
 10
12.0
 20
9.0
  9
$UNITMODE
 70
     0
  9
$VISRETAIN
 70
     0
  9
$PLINEGEN
 70
     0
  9
$PSLTSCALE
 70
     0
  0
ENDSEC
  0
SECTION
  2
TABLES
  0
TABLE
  2
VPORT
 70
     2
  0
VPORT
  2
*ACTIVE
 70
     0
 10
0.0
 20
0.0
 11
1.0
 21
1.0
 12
688.000977
 22
297.816582
 13
0.0
 23
0.0
 14
1000.0
 24
1000.0
 15
0.0
 25
0.0
 16
0.0
 26
0.0
 36
1.0
 17
0.0
 27
0.0
 37
0.0
 40
1703.902054
 41
1.825
 42
50.0
 43
0.0
 44
0.0
 50
0.0
 51
0.0
 71
     0
 72
  2000
 73
     1
 74
     2
 75
     0
 76
     0
 77
     0
 78
     0
  0
ENDTAB
  0
TABLE
  2
LTYPE
 70
     3
  0
LTYPE
  2
CONTINUOUS
 70
     0
  3
Solid line
 72
    65
 73
     0
 40
0.0
  0
LTYPE
  2
CENTER
 70
     0
  3
____ _ ____ _ ____ _ ____ _ ____ _ ____ _ ____
 72
    65
 73
     4
 40
2.0
 49
1.25
 49
-0.25
 49
0.25
 49
-0.25
  0
LTYPE
  2
DASHED
 70
     0
  3
__ __ __ __ __ __ __ __ __ __ __ __ __ __ __
 72
    65
 73
     2
 40
0.75
 49
0.5
 49
-0.25
  0
ENDTAB
  0
TABLE
  2
LAYER
 70
    14
  0
LAYER
  2
0
 70
     0
 62
     7
  6
CONTINUOUS
  0
LAYER
  2
DETAIL
 70
     0
 62
     2
  6
CONTINUOUS
  0
LAYER
  2
DIMENSIONS
 70
     1
 62
     7
  6
CONTINUOUS
  0
LAYER
  2
CENTER
 70
     1
 62
     4
  6
CENTER
  0
LAYER
  2
ORIGIN
 70
     0
 62
     6
  6
CONTINUOUS
  0
LAYER
  2
PLANNING
 70
     1
 62
     1
  6
DASHED
  0
LAYER
  2
STELTXT
 70
     1
 62
     4
  6
CONTINUOUS
  0
LAYER
  2
FLHDR
 70
     1
 62
     3
  6
CONTINUOUS
  0
LAYER
  2
FLHDL
 70
     1
 62
     3
  6
CONTINUOUS
  0
LAYER
  2
DIMFLHDL
 70
     1
 62
     7
  6
CONTINUOUS
  0
LAYER
  2
DIMFLHDR
 70
     1
 62
     7
  6
CONTINUOUS
  0
LAYER
  2
FLHDRTXT
 70
     1
 62
     3
  6
CONTINUOUS
  0
LAYER
  2
FLHDLTXT
 70
     1
 62
     3
  6
CONTINUOUS
  0
LAYER
  2
STELATT
 70
     0
 62
     7
  6
CONTINUOUS
  0
ENDTAB
  0
TABLE
  2
STYLE
 70
     1
  0
STYLE
  2
STANDARD
 70
     0
 40
0.0
 41
1.0
 50
0.0
 71
     0
 42
3.0
  3
simplex
  4

  0
ENDTAB
  0
TABLE
  2
VIEW
 70
     0
  0
ENDTAB
  0
TABLE
  2
UCS
 70
     0
  0
ENDTAB
  0
TABLE
  2
APPID
 70
     1
  0
APPID
  2
ACAD
 70
     0
  0
ENDTAB
  0
TABLE
  2
DIMSTYLE
 70
     1
  0
DIMSTYLE
  2
-
 70
     0
  3

  4

  5

  6

  7

 40
1.0
 41
0.18
 42
0.0625
 43
0.38
 44
0.18
 45
0.0
 46
0.0
 47
0.0
 48
0.0
140
0.18
141
0.09
142
0.0
143
25.4
144
1.0
145
0.0
146
1.0
147
0.09
 71
     0
 72
     0
 73
     1
 74
     1
 75
     0
 76
     0
 77
     0
 78
     0
170
     0
171
     2
172
     0
173
     0
174
     0
175
     0
176
     0
177
     0
178
     0
  0
ENDTAB
  0
ENDSEC
  0
SECTION
  2
BLOCKS
  0
BLOCK
  8
0
  2
$MODEL_SPACE
 70
     0
 10
0.0
 20
0.0
 30
0.0
  3
$MODEL_SPACE
  1

  0
ENDBLK
  5
229
  8
0
  0
BLOCK
 67
     1
  8
0
  2
$PAPER_SPACE
 70
     0
 10
0.0
 20
0.0
 30
0.0
  3
$PAPER_SPACE
  1

  0
ENDBLK
  5
227
 67
     1
  8
0
  0
ENDSEC
  0
SECTION
  2
ENTITIES
  0
LINE
  5
34
  8
PLANNING
 10
-100.0
 20
1340.0
 30
0.0
 11
-100.0
 21
-750.0
 31
0.0
  0
LINE
  5
35
  8
PLANNING
 10
1576.0
 20
1340.0
 30
0.0
 11
1576.0
 21
-750.0
 31
0.0
  0
LINE
  5
36
  8
PLANNING
 10
-100.0
 20
1340.0
 30
0.0
 11
1576.0
 21
1340.0
 31
0.0
  0
LINE
  5
37
  8
PLANNING
 10
-100.0
 20
-750.0
 30
0.0
 11
1576.0
 21
-750.0
 31
0.0
  0
TEXT
  5
3F
  8
DIMENSIONS
 10
698.714286
 20
-229.356053
 30
0.0
 40
25.0
  1
1476
  0
SOLID
  5
40
  8
DIMENSIONS
 10
1451.0
 20
-258.52272
 30
0.0
 11
1451.0
 21
-250.189386
 31
0.0
 12
1476.0
 22
-254.356053
 32
0.0
 13
1476.0
 23
-254.356053
 33
0.0
  0
SOLID
  5
41
  8
DIMENSIONS
 10
25.0
 20
-258.52272
 30
0.0
 11
25.0
 21
-250.189386
 31
0.0
 12
0.0
 22
-254.356053
 32
0.0
 13
0.0
 23
-254.356053
 33
0.0
  0
LINE
  5
42
  8
DIMENSIONS
 10
25.0
 20
-254.356053
 30
0.0
 11
1451.0
 21
-254.356053
 31
0.0
  0
LINE
  5
43
  8
DIMENSIONS
 10
1476.0
 20
-67.592165
 30
0.0
 11
1476.0
 21
-269.356053
 31
0.0
  0
LINE
  5
44
  8
DIMENSIONS
 10
0.0
 20
-15.0
 30
0.0
 11
0.0
 21
-269.356053
 31
0.0
  0
LINE
  5
45
  8
DIMENSIONS
 10
1331.0
 20
626.0
 30
0.0
 11
1331.0
 21
-169.356053
 31
0.0
  0
LINE
  5
46
  8
DIMENSIONS
 10
171.0
 20
-154.356053
 30
0.0
 11
1306.0
 21
-154.356053
 31
0.0
  0
SOLID
  5
47
  8
DIMENSIONS
 10
171.0
 20
-158.52272
 30
0.0
 11
171.0
 21
-150.189386
 31
0.0
 12
146.0
 22
-154.356053
 32
0.0
 13
146.0
 23
-154.356053
 33
0.0
  0
SOLID
  5
48
  8
DIMENSIONS
 10
1306.0
 20
-158.52272
 30
0.0
 11
1306.0
 21
-150.189386
 31
0.0
 12
1331.0
 22
-154.356053
 32
0.0
 13
1331.0
 23
-154.356053
 33
0.0
  0
TEXT
  5
49
  8
DIMENSIONS
 10
709.333333
 20
-129.356053
 30
0.0
 40
25.0
  1
1185
  0
LINE
  5
4A
  8
DIMENSIONS
 10
146.0
 20
626.0
 30
0.0
 11
146.0
 21
-169.356053
 31
0.0
  0
LINE
  5
4B
  8
CENTER
 10
1331.0
 20
791.0
 30
0.0
 11
1331.0
 21
641.0
 31
0.0
  0
LINE
  5
4D
  8
CENTER
 10
146.0
 20
791.0
 30
0.0
 11
146.0
 21
641.0
 31
0.0
  0
TEXT
  5
5B
  8
DIMENSIONS
 10
1921.0
 20
437.714286
 30
0.0
 40
25.0
  1
1140
 50
90.0
  0
SOLID
  5
5C
  8
DIMENSIONS
 10
1950.166667
 20
1115.0
 30
0.0
 11
1941.833333
 21
1115.0
 31
0.0
 12
1946.0
 22
1140.0
 32
0.0
 13
1946.0
 23
1140.0
 33
0.0
  0
SOLID
  5
5D
  8
DIMENSIONS
 10
1950.166667
 20
25.0
 30
0.0
 11
1941.833333
 21
25.0
 31
0.0
 12
1946.0
 22
0.0
 32
0.0
 13
1946.0
 23
0.0
 33
0.0
  0
LINE
  5
5E
  8
DIMENSIONS
 10
1946.0
 20
25.0
 30
0.0
 11
1946.0
 21
1140.0
 31
0.0
  0
LINE
  5
5F
  8
DIMENSIONS
 10
1961.0
 20
1140.0
 30
0.0
 11
1961.0
 21
1140.0
 31
0.0
  0
LINE
  5
60
  8
DIMENSIONS
 10
1491.0
 20
0.0
 30
0.0
 11
1961.0
 21
0.0
 31
0.0
  0
LINE
  5
65
  8
DIMENSIONS
 10
-310.0
 20
716.0
 30
0.0
 11
-310.0
 21
716.0
 31
0.0
  0
LINE
  5
67
  8
DETAIL
 10
146.0
 20
1140.0
 30
0.0
 11
146.0
 21
811.5
 31
0.0
  0
LINE
  5
68
  8
DETAIL
 10
1331.0
 20
1140.0
 30
0.0
 11
1331.0
 21
811.5
 31
0.0
  0
TEXT
  5
69
  8
DIMENSIONS
 10
1392.653266
 20
968.124717
 30
0.0
 40
25.0
  1
250
 50
90.0
  0
SOLID
  5
6A
  8
DIMENSIONS
 10
1410.761602
 20
915.0
 30
0.0
 11
1402.428268
 21
915.0
 31
0.0
 12
1406.594935
 22
890.0
 32
0.0
 13
1406.594935
 23
890.0
 33
0.0
  0
SOLID
  5
6B
  8
DIMENSIONS
 10
1410.761602
 20
1115.0
 30
0.0
 11
1402.428268
 21
1115.0
 31
0.0
 12
1406.594935
 22
1140.0
 32
0.0
 13
1406.594935
 23
1140.0
 33
0.0
  0
LINE
  5
6C
  8
DIMENSIONS
 10
1406.594935
 20
1115.0
 30
0.0
 11
1406.594935
 21
890.0
 31
0.0
  0
LINE
  5
6D
  8
DIMENSIONS
 10
944.855124
 20
890.0
 30
0.0
 11
1417.085348
 21
890.0
 31
0.0
  0
LINE
  5
6E
  8
CENTER
 10
916.5
 20
890.0
 30
0.0
 11
560.5
 21
890.0
 31
0.0
  0
LINE
  5
6F
  8
CENTER
 10
738.5
 20
1068.0
 30
0.0
 11
738.5
 21
715.0
 31
0.0
  0
LINE
  5
7D
  8
DIMENSIONS
 10
832.936183
 20
-50.0
 30
0.0
 11
-340.0
 21
-50.0
 31
0.0
  0
TEXT
  5
7E
  8
DIMENSIONS
 10
-350.0
 20
309.857143
 30
0.0
 40
25.0
  1
766
 50
90.0
  0
SOLID
  5
7F
  8
DIMENSIONS
 10
-320.833333
 20
691.0
 30
0.0
 11
-329.166667
 21
691.0
 31
0.0
 12
-325.0
 22
716.0
 32
0.0
 13
-325.0
 23
716.0
 33
0.0
  0
SOLID
  5
80
  8
DIMENSIONS
 10
-320.833333
 20
-25.0
 30
0.0
 11
-329.166667
 21
-25.0
 31
0.0
 12
-325.0
 22
-50.0
 32
0.0
 13
-325.0
 23
-50.0
 33
0.0
  0
LINE
  5
81
  8
DIMENSIONS
 10
-325.0
 20
-50.0
 30
0.0
 11
-325.0
 21
716.0
 31
0.0
  0
LINE
  5
82
  8
DIMENSIONS
 10
56.0
 20
716.0
 30
0.0
 11
-340.0
 21
716.0
 31
0.0
  0
LINE
  5
83
  8
DIMENSIONS
 10
-15.0
 20
-50.0
 30
0.0
 11
-340.0
 21
-50.0
 31
0.0
  0
LINE
  5
85
  8
DETAIL
 10
891.541661
 20
811.5
 30
0.0
 11
1476.0
 21
811.5
 31
0.0
  0
LINE
  5
86
  8
DETAIL
 10
0.0
 20
811.5
 30
0.0
 11
585.458339
 21
811.5
 31
0.0
  0
CIRCLE
  5
87
  8
DETAIL
 10
738.5
 20
890.0
 30
0.0
 40
172.0
  0
LINE
  5
88
  8
DETAIL
 10
1476.0
 20
1036.0
 30
0.0
 11
1476.0
 21
-50.0
 31
0.0
  0
LINE
  5
89
  8
DETAIL
 10
0.0
 20
1036.0
 30
0.0
 11
0.0
 21
0.0
 31
0.0
  0
LINE
  5
8A
  8
DETAIL
 10
146.0
 20
1140.0
 30
0.0
 11
1331.0
 21
1140.0
 31
0.0
  0
LINE
  5
8B
  8
DETAIL
 10
0.0
 20
0.0
 30
0.0
 11
1476.0
 21
0.0
 31
0.0
  0
TEXT
  5
ED
  8
STELTXT
 10
1388.09971
 20
1413.689384
 30
0.0
 40
25.0
  1
FLUE OUTLET
  0
LINE
  5
EE
  8
DIMFLHDR
 10
1736.0
 20
801.0
 30
0.0
 11
1753.554656
 21
801.0
 31
0.0
  0
LINE
  5
EF
  8
DIMFLHDR
 10
1736.0
 20
631.0
 30
0.0
 11
2036.898897
 21
631.0
 31
0.0
  0
LINE
  5
F0
  8
DIMFLHDR
 10
2021.898897
 20
776.0
 30
0.0
 11
2021.898897
 21
656.0
 31
0.0
  0
SOLID
  5
F1
  8
DIMFLHDR
 10
2026.065564
 20
776.0
 30
0.0
 11
2017.732231
 21
776.0
 31
0.0
 12
2021.898897
 22
801.0
 32
0.0
 13
2021.898897
 23
801.0
 33
0.0
  0
SOLID
  5
F2
  8
DIMFLHDR
 10
2026.065564
 20
656.0
 30
0.0
 11
2017.732231
 21
656.0
 31
0.0
 12
2021.898897
 22
631.0
 32
0.0
 13
2021.898897
 23
631.0
 33
0.0
  0
TEXT
  5
F3
  8
DIMFLHDR
 10
1996.898897
 20
686.238095
 30
0.0
 40
25.0
  1
170
 50
90.0
  0
LINE
  5
F4
  8
DIMFLHDR
 10
1476.0
 20
776.5
 30
0.0
 11
1476.0
 21
1101.0
 31
0.0
  0
LINE
  5
F5
  8
DIMFLHDR
 10
1721.0
 20
816.0
 30
0.0
 11
1721.0
 21
1101.0
 31
0.0
  0
LINE
  5
F6
  8
DIMFLHDR
 10
1501.0
 20
1077.770755
 30
0.0
 11
1696.0
 21
1077.770755
 31
0.0
  0
SOLID
  5
F7
  8
DIMFLHDR
 10
1501.0
 20
1073.604088
 30
0.0
 11
1501.0
 21
1081.937421
 31
0.0
 12
1476.0
 22
1077.770755
 32
0.0
 13
1476.0
 23
1077.770755
 33
0.0
  0
SOLID
  5
F8
  8
DIMFLHDR
 10
1696.0
 20
1073.604088
 30
0.0
 11
1696.0
 21
1081.937421
 31
0.0
 12
1721.0
 22
1077.770755
 32
0.0
 13
1721.0
 23
1077.770755
 33
0.0
  0
TEXT
  5
F9
  8
DIMFLHDR
 10
1566.357143
 20
1102.770755
 30
0.0
 40
25.0
  1
245
  0
TEXT
  5
FA
  8
DIMFLHDL
 10
-154.642857
 20
1111.0
 30
0.0
 40
25.0
  1
245
  0
SOLID
  5
FB
  8
DIMFLHDL
 10
-220.0
 20
1093.73219
 30
0.0
 11
-220.0
 21
1102.065523
 31
0.0
 12
-245.0
 22
1097.898856
 32
0.0
 13
-245.0
 23
1097.898856
 33
0.0
  0
SOLID
  5
FC
  8
DIMFLHDL
 10
-25.0
 20
1093.73219
 30
0.0
 11
-25.0
 21
1102.065523
 31
0.0
 12
0.0
 22
1097.898856
 32
0.0
 13
0.0
 23
1097.898856
 33
0.0
  0
LINE
  5
FD
  8
DIMFLHDL
 10
0.0
 20
1097.898856
 30
0.0
 11
-220.0
 21
1097.898856
 31
0.0
  0
LINE
  5
FE
  8
DIMFLHDL
 10
-245.0
 20
816.0
 30
0.0
 11
-245.0
 21
1101.0
 31
0.0
  0
LINE
  5
FF
  8
DIMFLHDL
 10
0.0
 20
776.5
 30
0.0
 11
0.0
 21
1086.941274
 31
0.0
  0
SOLID
  5
100
  8
DIMFLHDL
 10
-429.166667
 20
656.0
 30
0.0
 11
-420.833333
 21
656.0
 31
0.0
 12
-425.0
 22
631.0
 32
0.0
 13
-425.0
 23
631.0
 33
0.0
  0
SOLID
  5
101
  8
DIMFLHDL
 10
-429.166667
 20
776.0
 30
0.0
 11
-420.833333
 21
776.0
 31
0.0
 12
-425.0
 22
801.0
 32
0.0
 13
-425.0
 23
801.0
 33
0.0
  0
LINE
  5
102
  8
DIMFLHDL
 10
-425.0
 20
801.0
 30
0.0
 11
-425.0
 21
656.0
 31
0.0
  0
LINE
  5
103
  8
DIMFLHDL
 10
-259.0
 20
631.0
 30
0.0
 11
-440.0
 21
631.0
 31
0.0
  0
LINE
  5
104
  8
DIMFLHDL
 10
-259.0
 20
801.0
 30
0.0
 11
-425.0
 21
801.0
 31
0.0
  0
TEXT
  5
105
  8
DIMFLHDL
 10
-450.0
 20
686.238095
 30
0.0
 40
25.0
  1
170
 50
90.0
  0
LINE
  5
106
  8
DIMFLHDL
 10
-425.0
 20
801.0
 30
0.0
 11
-440.0
 21
801.0
 31
0.0
  0
SOLID
  5
107
  8
STELTXT
 10
760.955854
 20
905.343405
 30
0.0
 11
755.259352
 21
911.425701
 31
0.0
 12
739.860717
 22
891.295049
 32
0.0
 13
739.860717
 23
891.295049
 33
0.0
  0
LINE
  5
108
  8
STELTXT
 10
758.036533
 20
908.397101
 30
0.0
 11
1320.530193
 21
1425.989564
 31
0.0
  0
LINE
  5
109
  8
STELTXT
 10
1320.530193
 20
1425.989564
 30
0.0
 11
1367.183417
 21
1425.989564
 31
0.0
  0
LINE
  5
10A
  8
DIMENSIONS
 10
1347.707218
 20
1140.0
 30
0.0
 11
1961.0
 21
1140.0
 31
0.0
  0
LINE
  5
110
  8
DETAIL
 10
0.0
 20
1036.0
 30
0.0
 11
146.0
 21
1036.0
 31
0.0
  0
TEXT
  5
111
  8
STELTXT
 10
-683.45544
 20
1046.490109
 30
0.0
 40
25.0
  1
DRAUGHT SKIRT
  0
LINE
  5
115
  8
STELTXT
 10
-52.889784
 20
1057.747636
 30
0.0
 11
-348.532916
 21
1057.747636
 31
0.0
  0
SOLID
  5
116
  8
STELTXT
 10
-9.158092
 20
1019.908501
 30
0.0
 11
-15.050649
 21
1014.015944
 31
0.0
 12
5.573299
 22
999.284553
 32
0.0
 13
5.573299
 23
999.284553
 33
0.0
  0
LINE
  5
11A
  8
STELTXT
 10
-12.104371
 20
1016.962222
 30
0.0
 11
-52.889784
 21
1057.747636
 31
0.0
  0
LINE
  5
11B
  8
DIMENSIONS
  6
CONTINUOUS
 10
566.5
 20
905.0
 30
0.0
 11
566.5
 21
1465.547447
 31
0.0
  0
LINE
  5
11C
  8
DIMENSIONS
  6
CONTINUOUS
 10
910.5
 20
905.0
 30
0.0
 11
910.5
 21
1465.547447
 31
0.0
  0
LINE
  5
11D
  8
DIMENSIONS
  6
CONTINUOUS
 10
591.5
 20
1450.547447
 30
0.0
 11
885.5
 21
1450.547447
 31
0.0
  0
SOLID
  5
11E
  8
DIMENSIONS
  6
CONTINUOUS
 10
591.5
 20
1454.714114
 30
0.0
 11
591.5
 21
1446.380781
 31
0.0
 12
566.5
 22
1450.547447
 32
0.0
 13
566.5
 23
1450.547447
 33
0.0
  0
SOLID
  5
11F
  8
DIMENSIONS
  6
CONTINUOUS
 10
885.5
 20
1454.714114
 30
0.0
 11
885.5
 21
1446.380781
 31
0.0
 12
910.5
 22
1450.547447
 32
0.0
 13
910.5
 23
1450.547447
 33
0.0
  0
TEXT
  5
120
  8
DIMENSIONS
  6
CONTINUOUS
 10
705.761905
 20
1475.547447
 30
0.0
 40
25.0
  1
%%C344
  0
LINE
  5
121
  8
DIMFLHDL
 10
0.0
 20
1092.229652
 30
0.0
 11
0.0
 21
1108.094787
 31
0.0
  0
LINE
  5
123
  8
DIMENSIONS
  6
CONTINUOUS
 10
102.416723
 20
1036.0
 30
0.0
 11
102.416723
 21
1036.0
 31
0.0
  0
LINE
  5
124
  8
DIMENSIONS
  6
CONTINUOUS
 10
117.416723
 20
741.0
 30
0.0
 11
117.416723
 21
1011.0
 31
0.0
  0
SOLID
  5
125
  8
DIMENSIONS
  6
CONTINUOUS
 10
113.250056
 20
741.0
 30
0.0
 11
121.58339
 21
741.0
 31
0.0
 12
117.416723
 22
716.0
 32
0.0
 13
117.416723
 23
716.0
 33
0.0
  0
SOLID
  5
126
  8
DIMENSIONS
  6
CONTINUOUS
 10
113.250056
 20
1011.0
 30
0.0
 11
121.58339
 21
1011.0
 31
0.0
 12
117.416723
 22
1036.0
 32
0.0
 13
117.416723
 23
1036.0
 33
0.0
  0
TEXT
  5
127
  8
DIMENSIONS
  6
CONTINUOUS
 10
109.217292
 20
843.857143
 30
0.0
 40
25.0
  1
320
 50
90.0
  0
LINE
  5
188
  8
DETAIL
 10
876.0
 20
0.0
 30
0.0
 11
876.0
 21
-50.0
 31
0.0
  0
TEXT
  5
189
  8
STELTXT
 10
1975.313802
 20
1019.787689
 30
0.0
 40
25.0
  1
GAS INLET 1 " BSP
  0
LINE
  5
18A
  8
STELTXT
 10
1792.732693
 20
1031.045216
 30
0.0
 11
1955.142206
 21
1031.045216
 31
0.0
  0
TEXT
  5
18B
  8
STELTXT
 10
2211.291019
 20
1029.645881
 30
0.0
 40
15.0
  1
1
  0
TEXT
  5
18C
  8
STELTXT
 10
2218.071602
 20
1023.543777
 30
0.0
 40
15.0
  1
/
  0
TEXT
  5
18D
  8
STELTXT
 10
2227.564417
 20
1020.831731
 30
0.0
 40
15.0
  1
2
  0
LINE
  5
18E
  8
STELTXT
 10
1497.230116
 20
851.031635
 30
0.0
 11
1792.732693
 21
1031.045216
 31
0.0
  0
SOLID
  5
190
  8
STELTXT
 10
1495.062419
 20
854.590033
 30
0.0
 11
1499.397813
 21
847.473236
 31
0.0
 12
1475.879725
 22
838.025452
 32
0.0
 13
1475.879725
 23
838.025452
 33
0.0
  0
SOLID
  5
192
  8
DIMENSIONS
 10
1795.872996
 20
813.0
 30
0.0
 11
1804.206329
 21
813.0
 31
0.0
 12
1800.039663
 22
838.0
 32
0.0
 13
1800.039663
 23
838.0
 33
0.0
  0
LINE
  5
193
  8
DIMENSIONS
 10
1800.039663
 20
813.0
 30
0.0
 11
1800.039663
 21
741.0
 31
0.0
  0
TEXT
  5
194
  8
DIMENSIONS
 10
1786.377923
 20
747.238095
 30
0.0
 40
25.0
  1
122
 50
90.0
  0
SOLID
  5
195
  8
DIMENSIONS
 10
1795.872996
 20
741.0
 30
0.0
 11
1804.206329
 21
741.0
 31
0.0
 12
1800.039663
 22
716.0
 32
0.0
 13
1800.039663
 23
716.0
 33
0.0
  0
LINE
  5
198
  8
STELTXT
 10
1344.587526
 20
694.647368
 30
0.0
 11
1743.372359
 21
39.765325
 31
0.0
  0
SOLID
  5
199
  8
STELTXT
 10
1341.028754
 20
692.480284
 30
0.0
 11
1348.146298
 21
696.814452
 31
0.0
 12
1331.585023
 22
716.0
 32
0.0
 13
1331.585023
 23
716.0
 33
0.0
  0
LINE
  5
19A
  8
STELTXT
 10
1738.673832
 20
694.647368
 30
0.0
 11
2048.222027
 21
186.309194
 31
0.0
  0
SOLID
  5
19B
  8
STELTXT
 10
1735.11506
 20
692.480284
 30
0.0
 11
1742.232605
 21
696.814452
 31
0.0
 12
1725.671329
 22
716.0
 32
0.0
 13
1725.671329
 23
716.0
 33
0.0
  0
TEXT
  5
19C
  8
STELTXT
 10
2118.664687
 20
176.607653
 30
0.0
 40
25.0
  1
1 x 2" SIDE FACING FLOW FLANGE
  0
LINE
  5
19D
  8
STELTXT
 10
2048.222027
 20
186.309194
 30
0.0
 11
2089.938448
 21
186.309194
 31
0.0
  0
TEXT
  5
19E
  8
STELTXT
 10
2118.664687
 20
28.091082
 30
0.0
 40
25.0
  1
1 x 2" SIDE FACING RETURN TAPPING
  0
LINE
  5
19F
  8
STELTXT
 10
1743.372359
 20
39.765325
 30
0.0
 11
2089.938448
 21
39.765325
 31
0.0
  0
LINE
  5
1A0
  8
STELTXT
 10
-258.002503
 20
694.647368
 30
0.0
 11
-567.550697
 21
186.309194
 31
0.0
  0
SOLID
  5
1A1
  8
STELTXT
 10
-254.443731
 20
692.480284
 30
0.0
 11
-261.561275
 21
696.814452
 31
0.0
 12
-245.0
 22
716.0
 32
0.0
 13
-245.0
 23
716.0
 33
0.0
  0
LINE
  5
1A2
  8
STELTXT
 10
136.083803
 20
694.647368
 30
0.0
 11
-262.70103
 21
39.765325
 31
0.0
  0
SOLID
  5
1A3
  8
STELTXT
 10
139.642575
 20
692.480284
 30
0.0
 11
132.525031
 21
696.814452
 31
0.0
 12
149.086306
 22
716.0
 32
0.0
 13
149.086306
 23
716.0
 33
0.0
  0
LINE
  5
1A4
  8
STELTXT
 10
-262.70103
 20
39.765325
 30
0.0
 11
-609.267119
 21
39.765325
 31
0.0
  0
TEXT
  5
1A5
  8
STELTXT
 10
-1299.89812
 20
176.607653
 30
0.0
 40
25.0
  1
1 x 2" SIDE FACING FLOW FLANGE
  0
TEXT
  5
1A6
  8
STELTXT
 10
-1366.564786
 20
28.091082
 30
0.0
 40
25.0
  1
1 x 2" SIDE FACING RETURN TAPPING
  0
LINE
  5
1A7
  8
STELTXT
 10
-567.550697
 20
186.309194
 30
0.0
 11
-609.267119
 21
186.309194
 31
0.0
  0
LINE
  5
1A8
  8
DETAIL
 10
876.0
 20
-50.0
 30
0.0
 11
1476.0
 21
-50.0
 31
0.0
  0
LINE
  5
1AA
  8
STELTXT
 10
1511.767522
 20
-32.398865
 30
0.0
 11
2086.685028
 21
-31.945795
 31
0.0
  0
SOLID
  5
1AB
  8
STELTXT
 10
1511.770805
 20
-36.56553
 30
0.0
 11
1511.764238
 21
-28.2322
 31
0.0
 12
1486.76753
 22
-32.418567
 32
0.0
 13
1486.76753
 23
-32.418567
 33
0.0
  0
TEXT
  5
1AC
  8
STELTXT
 10
2115.031373
 20
-44.13462
 30
0.0
 40
25.0
  1
OVERHANGING CONTROL PANEL
  0
LINE
  5
1AD
  8
CENTER
 10
1577.968396
 20
838.0
 30
0.0
 11
1438.575363
 21
838.0
 31
0.0
  0
LINE
  5
1AE
  8
DIMFLHDR
 10
1790.742665
 20
801.0
 30
0.0
 11
2036.898897
 21
801.0
 31
0.0
  0
LINE
  5
1AF
  8
DIMENSIONS
 10
1808.468348
 20
838.0
 30
0.0
 11
1593.051318
 21
838.0
 31
0.0
  0
LINE
  5
1B0
  8
DIMENSIONS
 10
1808.468348
 20
716.0
 30
0.0
 11
1428.695426
 21
716.0
 31
0.0
  0
LINE
  5
1B1
  8
CENTER
 10
1407.528775
 20
716.0
 30
0.0
 11
1256.0
 21
716.0
 31
0.0
  0
LINE
  5
1B5
  8
DETAIL
 10
1331.0
 20
1036.0
 30
0.0
 11
1476.0
 21
1036.0
 31
0.0
  0
POLYLINE
  5
1BD
  8
ORIGIN
 66
     1
 10
0.0
 20
0.0
 30
0.0
  0
VERTEX
  5
3AA
  8
ORIGIN
 10
0.0
 20
0.0
 30
0.0
  0
VERTEX
  5
3AB
  8
ORIGIN
 10
-100.0
 20
-100.0
 30
0.0
  0
VERTEX
  5
3AC
  8
ORIGIN
 10
-100.0
 20
100.0
 30
0.0
  0
VERTEX
  5
3AD
  8
ORIGIN
 10
100.0
 20
-100.0
 30
0.0
  0
VERTEX
  5
3AE
  8
ORIGIN
 10
100.0
 20
100.0
 30
0.0
  0
VERTEX
  5
3AF
  8
ORIGIN
 10
0.0
 20
0.0
 30
0.0
  0
SEQEND
  5
3B0
  8
ORIGIN
  0
ATTDEF
  5
1F6
  8
STELATT
 10
604.763842
 20
-544.324227
 30
0.0
 40
40.0
  1
CXSi 180
 72
     4
 11
698.097175
 21
-524.324227
 31
0.0
  3

  2
MODEL
 70
     2
  0
ATTDEF
  5
1F7
  8
STELATT
 10
614.371807
 20
-474.324227
 30
0.0
 40
40.0
  1
CONCORD 
 72
     4
 11
682.943236
 21
-454.324227
 31
0.0
  3

  2
TYPE
 70
     2
  0
ATTDEF
  5
1F8
  8
STELATT
 10
453.398373
 20
-404.324227
 30
0.0
 40
40.0
  1
IDEAL
 72
     4
 11
686.731706
 21
-384.324227
 31
0.0
  3

  2
MANUFACTURER
 70
     2
  0
LINE
  5
233
  8
FLHDLTXT
 10
-270.0
 20
651.760039
 30
0.0
 11
-644.212684
 21
651.760039
 31
0.0
  0
LINE
  5
234
  8
FLHDLTXT
 10
-164.873172
 20
572.086843
 30
0.0
 11
-665.280288
 21
572.086843
 31
0.0
  0
LINE
  5
235
  8
FLHDLTXT
 10
-69.5
 20
410.94662
 30
0.0
 11
-536.085123
 21
410.94662
 31
0.0
  0
TEXT
  5
236
  8
FLHDLTXT
 10
-1175.677648
 20
478.11954
 30
0.0
 40
25.0
  1
  " BSP FOR THERMOSTAT POCKET
  0
TEXT
  5
237
  8
FLHDLTXT
 10
-1162.834859
 20
638.11954
 30
0.0
 40
25.0
  1
2" FLANGED OUTLET BSP
  0
TEXT
  5
238
  8
FLHDLTXT
 10
-1175.677648
 20
558.11954
 30
0.0
 40
25.0
  1
  " BSP FOR OPEN VENT
  0
TEXT
  5
239
  8
FLHDLTXT
 10
-1175.677648
 20
398.11954
 30
0.0
 40
25.0
  1
  " BSP FOR PRESSURE GAUGE
  0
TEXT
  5
23A
  8
FLHDLTXT
 10
-1141.647243
 20
397.873504
 30
0.0
 40
15.0
  1
2
  0
TEXT
  5
23B
  8
FLHDLTXT
 10
-1160.420641
 20
406.687654
 30
0.0
 40
15.0
  1
1
  0
TEXT
  5
23C
  8
FLHDLTXT
 10
-1153.640058
 20
400.58555
 30
0.0
 40
15.0
  1
/
  0
TEXT
  5
23D
  8
FLHDLTXT
 10
-1141.647243
 20
477.873504
 30
0.0
 40
15.0
  1
2
  0
TEXT
  5
23E
  8
FLHDLTXT
 10
-1160.420641
 20
486.687654
 30
0.0
 40
15.0
  1
1
  0
TEXT
  5
23F
  8
FLHDLTXT
 10
-1153.640058
 20
480.58555
 30
0.0
 40
15.0
  1
/
  0
TEXT
  5
240
  8
FLHDLTXT
 10
-1160.420641
 20
566.687654
 30
0.0
 40
15.0
  1
1
  0
TEXT
  5
241
  8
FLHDLTXT
 10
-1153.640058
 20
560.58555
 30
0.0
 40
15.0
  1
/
  0
TEXT
  5
242
  8
FLHDLTXT
 10
-1141.647243
 20
557.873504
 30
0.0
 40
15.0
  1
2
  0
SOLID
  5
243
  8
FLHDLTXT
 10
-270.0
 20
655.926705
 30
0.0
 11
-270.0
 21
647.593372
 31
0.0
 12
-245.0
 22
651.760039
 32
0.0
 13
-245.0
 23
651.760039
 33
0.0
  0
LINE
  5
244
  8
FLHDLTXT
 10
-69.5
 20
684.65
 30
0.0
 11
-69.5
 21
410.94662
 31
0.0
  0
LINE
  5
245
  8
FLHDLTXT
 10
-116.3763
 20
698.5
 30
0.0
 11
-116.3763
 21
491.516731
 31
0.0
  0
LINE
  5
246
  8
FLHDLTXT
 10
-164.873172
 20
698.5
 30
0.0
 11
-164.873172
 21
572.086843
 31
0.0
  0
LINE
  5
247
  8
FLHDL
 10
-244.0
 20
801.0
 30
0.0
 11
-244.0
 21
631.0
 31
0.0
  0
LINE
  5
248
  8
FLHDL
 10
-226.0
 20
801.0
 30
0.0
 11
-226.0
 21
631.0
 31
0.0
  0
LINE
  5
249
  8
FLHDLTXT
 10
-116.3763
 20
491.516731
 30
0.0
 11
-470.792943
 21
491.516731
 31
0.0
  0
LINE
  5
24A
  8
FLHDL
 10
-244.0
 20
631.0
 30
0.0
 11
-226.0
 21
631.0
 31
0.0
  0
LINE
  5
24B
  8
FLHDL
 10
-226.0
 20
756.0
 30
0.0
 11
-37.0
 21
756.0
 31
0.0
  0
LINE
  5
24C
  8
FLHDL
 10
-226.0
 20
676.0
 30
0.0
 11
-37.0
 21
676.0
 31
0.0
  0
LINE
  5
24D
  8
FLHDL
 10
-244.0
 20
801.0
 30
0.0
 11
-226.0
 21
801.0
 31
0.0
  0
LINE
  5
24E
  8
FLHDL
 10
-165.973214
 20
733.5
 30
0.0
 11
-68.5
 21
733.5
 31
0.0
  0
LINE
  5
24F
  8
FLHDL
 10
-165.973214
 20
698.5
 30
0.0
 11
-68.5
 21
698.5
 31
0.0
  0
ARC
  5
250
  8
FLHDL
 10
-165.973214
 20
716.0
 30
0.0
 40
17.5
 50
90.0
 51
270.0
  0
SOLID
  5
251
  8
FLHDRTXT
 10
-169.128841
 20
682.841162
 30
0.0
 11
-160.795508
 21
682.841162
 31
0.0
 12
-164.962174
 22
707.841162
 32
0.0
 13
-164.962174
 23
707.841162
 33
0.0
  0
CIRCLE
  5
252
  8
FLHDL
 10
-165.973214
 20
716.0
 30
0.0
 40
6.35
  0
SOLID
  5
253
  8
FLHDRTXT
 10
-120.479399
 20
684.65
 30
0.0
 11
-112.146066
 21
684.65
 31
0.0
 12
-116.312733
 22
709.65
 32
0.0
 13
-116.312733
 23
709.65
 33
0.0
  0
CIRCLE
  5
254
  8
FLHDL
 10
-115.312733
 20
716.0
 30
0.0
 40
6.35
  0
ARC
  5
255
  8
FLHDL
 10
-68.5
 20
716.0
 30
0.0
 40
17.5
 50
270.0
 51
90.0
  0
LINE
  5
256
  8
FLHDL
 10
-29.0
 20
760.0
 30
0.0
 11
-29.0
 21
672.0
 31
0.0
  0
LINE
  5
257
  8
FLHDL
 10
-29.0
 20
676.0
 30
0.0
 11
1.0
 21
676.0
 31
0.0
  0
SOLID
  5
258
  8
FLHDRTXT
 10
-73.666667
 20
684.65
 30
0.0
 11
-65.333333
 21
684.65
 31
0.0
 12
-69.5
 22
709.65
 32
0.0
 13
-69.5
 23
709.65
 33
0.0
  0
LINE
  5
259
  8
FLHDL
 10
-33.0
 20
672.0
 30
0.0
 11
-29.0
 21
672.0
 31
0.0
  0
LINE
  5
25A
  8
FLHDL
 10
-33.0
 20
672.0
 30
0.0
 11
-37.0
 21
676.0
 31
0.0
  0
CIRCLE
  5
25B
  8
FLHDL
 10
-68.5
 20
716.0
 30
0.0
 40
6.35
  0
LINE
  5
25C
  8
FLHDL
 10
-29.0
 20
756.0
 30
0.0
 11
1.0
 21
756.0
 31
0.0
  0
LINE
  5
25D
  8
FLHDL
 10
-33.0
 20
760.0
 30
0.0
 11
-29.0
 21
760.0
 31
0.0
  0
LINE
  5
25E
  8
FLHDL
 10
-33.0
 20
760.0
 30
0.0
 11
-37.0
 21
756.0
 31
0.0
  0
LINE
  5
25F
  8
CENTER
 10
234.724194
 20
716.0
 30
0.0
 11
-342.884427
 21
716.0
 31
0.0
  0
LINE
  5
260
  8
FLHDRTXT
 10
1641.525181
 20
572.086843
 30
0.0
 11
2287.280288
 21
572.086843
 31
0.0
  0
LINE
  5
261
  8
FLHDRTXT
 10
1747.0
 20
651.760039
 30
0.0
 11
2266.212684
 21
651.760039
 31
0.0
  0
LINE
  5
262
  8
FLHDRTXT
 10
1546.5
 20
410.94662
 30
0.0
 11
2158.085123
 21
410.94662
 31
0.0
  0
LINE
  5
263
  8
FLHDR
 10
1703.0
 20
756.0
 30
0.0
 11
1514.0
 21
756.0
 31
0.0
  0
LINE
  5
264
  8
FLHDR
 10
1642.973214
 20
698.5
 30
0.0
 11
1545.5
 21
698.5
 31
0.0
  0
LINE
  5
265
  8
FLHDR
 10
1642.973214
 20
733.5
 30
0.0
 11
1545.5
 21
733.5
 31
0.0
  0
LINE
  5
266
  8
FLHDR
 10
1703.0
 20
676.0
 30
0.0
 11
1514.0
 21
676.0
 31
0.0
  0
LINE
  5
267
  8
FLHDRTXT
 10
1546.5
 20
684.65
 30
0.0
 11
1546.5
 21
410.94662
 31
0.0
  0
ARC
  5
268
  8
FLHDR
 10
1545.5
 20
716.0
 30
0.0
 40
17.5
 50
90.0
 51
270.0
  0
LINE
  5
269
  8
FLHDR
 10
1506.0
 20
760.0
 30
0.0
 11
1506.0
 21
672.0
 31
0.0
  0
LINE
  5
26A
  8
FLHDR
 10
1506.0
 20
676.0
 30
0.0
 11
1476.0
 21
676.0
 31
0.0
  0
SOLID
  5
26B
  8
FLHDRTXT
 10
1550.666667
 20
684.65
 30
0.0
 11
1542.333333
 21
684.65
 31
0.0
 12
1546.5
 22
709.65
 32
0.0
 13
1546.5
 23
709.65
 33
0.0
  0
LINE
  5
26C
  8
FLHDR
 10
1510.0
 20
672.0
 30
0.0
 11
1514.0
 21
676.0
 31
0.0
  0
LINE
  5
26D
  8
FLHDR
 10
1510.0
 20
672.0
 30
0.0
 11
1506.0
 21
672.0
 31
0.0
  0
CIRCLE
  5
26E
  8
FLHDR
 10
1545.5
 20
716.0
 30
0.0
 40
6.35
  0
LINE
  5
26F
  8
FLHDR
 10
1506.0
 20
756.0
 30
0.0
 11
1476.0
 21
756.0
 31
0.0
  0
LINE
  5
270
  8
FLHDR
 10
1510.0
 20
760.0
 30
0.0
 11
1514.0
 21
756.0
 31
0.0
  0
LINE
  5
271
  8
FLHDR
 10
1510.0
 20
760.0
 30
0.0
 11
1506.0
 21
760.0
 31
0.0
  0
SOLID
  5
272
  8
FLHDRTXT
 10
1747.0
 20
655.926705
 30
0.0
 11
1747.0
 21
647.593372
 31
0.0
 12
1722.0
 22
651.760039
 32
0.0
 13
1722.0
 23
651.760039
 33
0.0
  0
LINE
  5
273
  8
FLHDRTXT
 10
1593.981112
 20
684.65
 30
0.0
 11
1593.981112
 21
491.516731
 31
0.0
  0
LINE
  5
274
  8
FLHDRTXT
 10
1641.525181
 20
698.5
 30
0.0
 11
1641.525181
 21
572.086843
 31
0.0
  0
LINE
  5
275
  8
FLHDR
 10
1703.0
 20
801.0
 30
0.0
 11
1703.0
 21
631.0
 31
0.0
  0
LINE
  5
276
  8
FLHDR
 10
1721.0
 20
801.0
 30
0.0
 11
1721.0
 21
631.0
 31
0.0
  0
LINE
  5
277
  8
FLHDRTXT
 10
1593.981112
 20
491.516731
 30
0.0
 11
2092.792943
 21
491.516731
 31
0.0
  0
LINE
  5
278
  8
FLHDR
 10
1721.0
 20
631.0
 30
0.0
 11
1703.0
 21
631.0
 31
0.0
  0
ARC
  5
279
  8
FLHDR
 10
1642.973214
 20
716.0
 30
0.0
 40
17.5
 50
270.0
 51
90.0
  0
SOLID
  5
27A
  8
FLHDRTXT
 10
1597.479399
 20
684.65
 30
0.0
 11
1589.146066
 21
684.65
 31
0.0
 12
1593.312733
 22
709.65
 32
0.0
 13
1593.312733
 23
709.65
 33
0.0
  0
CIRCLE
  5
27B
  8
FLHDR
 10
1592.312733
 20
716.0
 30
0.0
 40
6.35
  0
SOLID
  5
27C
  8
FLHDRTXT
 10
1646.128841
 20
682.841162
 30
0.0
 11
1637.795508
 21
682.841162
 31
0.0
 12
1641.962174
 22
707.841162
 32
0.0
 13
1641.962174
 23
707.841162
 33
0.0
  0
CIRCLE
  5
27D
  8
FLHDR
 10
1642.973214
 20
716.0
 30
0.0
 40
6.35
  0
LINE
  5
27E
  8
FLHDR
 10
1721.0
 20
801.0
 30
0.0
 11
1703.0
 21
801.0
 31
0.0
  0
TEXT
  5
27F
  8
FLHDRTXT
 10
2295.296695
 20
638.11954
 30
0.0
 40
25.0
  1
2" FLANGED OUTLET BSP
  0
TEXT
  5
280
  8
FLHDRTXT
 10
2311.963362
 20
558.11954
 30
0.0
 40
25.0
  1
  " BSP FOR OPEN VENT
  0
TEXT
  5
281
  8
FLHDRTXT
 10
2185.772886
 20
398.11954
 30
0.0
 40
25.0
  1
  " BSP FOR PRESSURE GAUGE
  0
TEXT
  5
282
  8
FLHDRTXT
 10
2114.344314
 20
478.11954
 30
0.0
 40
25.0
  1
  " BSP FOR THERMOSTAT POCKET
  0
TEXT
  5
283
  8
FLHDRTXT
 10
2218.781654
 20
397.873504
 30
0.0
 40
15.0
  1
2
  0
TEXT
  5
284
  8
FLHDRTXT
 10
2200.008256
 20
406.687654
 30
0.0
 40
15.0
  1
1
  0
TEXT
  5
285
  8
FLHDRTXT
 10
2206.788839
 20
400.58555
 30
0.0
 40
15.0
  1
/
  0
TEXT
  5
286
  8
FLHDRTXT
 10
2152.054728
 20
477.873504
 30
0.0
 40
15.0
  1
2
  0
TEXT
  5
287
  8
FLHDRTXT
 10
2133.281329
 20
486.687654
 30
0.0
 40
15.0
  1
1
  0
TEXT
  5
288
  8
FLHDRTXT
 10
2140.061912
 20
480.58555
 30
0.0
 40
15.0
  1
/
  0
TEXT
  5
289
  8
FLHDRTXT
 10
2325.073998
 20
566.687654
 30
0.0
 40
15.0
  1
1
  0
TEXT
  5
28A
  8
FLHDRTXT
 10
2331.85458
 20
560.58555
 30
0.0
 40
15.0
  1
/
  0
TEXT
  5
28B
  8
FLHDRTXT
 10
2343.847396
 20
557.873504
 30
0.0
 40
15.0
  1
2
  0
ENDSEC
  0
EOF
